What It Is (Hauptriff) Tabulatur von Mark Knopfler

Ukulele Tabs ohne Akkorde.

Tab ins SongBook hinzufügen
Tablature / ChordsFont size: A- A A+

Sie wissen nicht wie man einen Tab oder Akkorde liest ?
Schauen Sie sich diesen uke Unterricht an:

Ukulelen-Unterricht

H        P      H            ~      ~            
A|---------------------------------------------------
E|--5---------------5--------------------------------
C|--4-6--6--6--4----4-6--4----4-6-------4------------
G|---------------6---------6-------------------------
H P H ~
A|---------------------------------------------------
E|--5---------------------------5--------------------
C|--4-6--6--6--4----4-6--4---------------------------
G|---------------6---------6--4--------4-------------
H P H ~ P ~
A|---------------------------------------------------
E|--5---------------5---------5---------4------------
C|--4-6--6--6--4----4-6--4-------6----------6--4-----
G|---------------6---------6----------B5--BD---------
H P H ~ ~
A|---------------------------------------------------
E|--5----------------------------5-------------------
C|--4-6--6--6--4----4-6--4---------------------------
G|---------------6--6------6--4------------4---------
S
A|--7-----7-7-7-------
E|--------------2-----
C|--------------------
G|--6-----------------
H P S ~ H P
A|---------------------7-----7---7----------------B-BD-----
E|--2----------------5---2-----2------1--2-2-5----4--------
C|-----------------------------------------------6----4----
G|---2-4B56BD4-2------6-----------------9---6------7-------
S
A|---7--7--5------------------------------
E|--------------------0-------------------
C|----------------------6-----------------
G|---6--4--2----------2-7-----------------
H P S ~
A|---------------------7-----7---------------7--------------
E|--2----------------5---2--------1--2--1--2---5---2-----0-
C|--------------------------------------------------B-BD---
G|---2-4B56BD4-2------6-------------9-----9---6------12-----
S S
A|---7--7------5------4-7-7----7----------
E|---5--4-0-2--2---------5-4-2------------
C|-------(---)----------------------------
G|-------------2-----------------6--------
S S
A|-----------------2----4-2-----5---------
E|---2-----5--------------------2---------
C|-------------------0x1------------------
G|-----6-4-------------x----2-1-2---------
S
A|---7-7-7-7----5-------------------------
E|---5-5-5-4--0-2--------------------4----
C|----------------------------4-4-6-------
G|------------1-2--------6--7-------------
H P S ~ P
A|---------------------7-----7-------------------B-BD------
E|--2----------------5---2--------1--2--2---5----4---------
C|----------------------------------------------6-----4----
G|---2-4B56BD4-2------6-------------9-----6-------7--------
H P H S
A|---------------4-7-7-------7---------------7-----7-------
E|--2------------------2-5-2------1--2--1--2----2----------
C|---------------------------------------------------------
G|---2-4B56BD4-2--------------------9-----9----9----6-4-2--
S H
A|----------7--------
E|------3-4------2---
C|--x-x--------------
G|--x-x-----4--------
H H P P ~~~~S P
A|--2-------4----4--7-4-----------------7-----7-5-7----------7-5-7-----
E|-----0--2-------2------------------------2---------2-2-2-2-----------
C|----1----------------------------------------------------------------
G|------2--2--2-4------4-2-2--------------9---------9------------------
H P ~
A|--5-7-5---7--------7---------4-7------7-4----------------------------
E|----------------------22-4-2------2-2-------2------------------------
C|---------------------------------------------------------------------
G|--------6---4--------9-----------9--------2--------------------------
~~~
A|----------7-----------7----------------------------------------------
E|--2------------------------------------------------------------------
C|---------------------------------------------------------------------
G|----1-2-4-4B56-4---2--4--2--1----------------------------------------
H P S P
A|-------------------------7------7------------------------------------
E|--2---2----------------5---2-------2-2---5-4-------------------------
C|---------------------------------------------6--4--------------------
G|-------2-4B56BD4-2------6---------9----6-6---------------------------
H P H P H S
A|-----------------------7-------7---------7--4-------------------------
E|--2------------------5---2-5-2------5--2------------------------------
C|----------------------------------------------------------------------
G|----2-4B56BD4-2-------6-----------X-----------2-4B56BD4-2-4--2----1-2-
H P ~ ~
A|---------------------------------------------------------------------
E|--2----------------------------------------5---4----5--4-----5-------
C|---------------------------------------------------------6------6--4-
G|----2-4B56BD4-2--------4B56-4B56-4-2---------------9-------6---------
H P ~ S ~
A|--------------------------4-7----------------------------------------
E|--2------------------------------------2-2---------------------------
C|---------------------------------------------------------------------
G|----2-4B56BD4-2-------4B56----4B56-4-2--4-2----4---------------------
~ P P S S
A|---------------------------------------------------------------------
E|-------2---2-4-5--4-----5--4-2-----5-4-----5-------------------------
C|--4--6-------------------------4-------------------------------------
G|---B5------------------9---------6------4----4-6--4------------------
H P S S
A|-----------------------7---------------------------------------------
E|--2------------------5---2-----------5-------------------------------
C|---------------------------------------------------------------------
G|----2-4B56BD4-2-------6--------6-6-4---4--6-4------------------------
P S P S
A|--------7---------7--------------------------------------------------
E|--5-5-4---2---------------------0-0-2--------------------------------
C|---------------------------------------------------------------------
G|--6-6-4-4-----9------2-1-2-4-2-1-------------------------------------
H P S ~
A|-----------------------7--------7---7----7-----7---------------------
E|--2------------------5---2-------------2----2---5-2------------------
C|----------------------------------------------------4----------------
G|----2-4B56BD4-2-------6---------------9----9--6----------------------
S S S S ~ P P S H
A|-------------------------------------------4-------------------------
E|-------4-5---------5--2--------4B-5BD4-2-0-------------------5--5---
C|--6-4-6-------4--6------4------------------------------------4--4---
G|----- -----46--B5----------------14---------2-1-2-4-4B56-4-----------
H P H H ~ ~
A|---------------------------------------------------
E|--5---------------5--------------------------------
C|--4-6--6--6--4----4-6--4----4-6-------4------------
G|---------------6---------6-------------------------
H P H P S
A|---------------------------------------------------
E|--5---------------5------------5-------------------
C|--4-6--6--6--4----4-6--4-----4-2----4--------------
G|---------------6----------6--4------4--------------
H P H ~ P ~
A|---------------------------------------------------
E|--5---------------5---------5---------4------------
C|--4-6--6--6--4----4-6--4-------6----------6--4-----
G|---------------6---------6----------B5--BD---------
H P H ~ ~
A|---------------------------------------------------
E|--5----------------------------5-------------------
C|--4-6--6--6--4----4-6--4--------------x------------
G|---------------6--6------6--4---------x--4---------
H P H ~
A|---------------------------------------------------
E|--------------------------5-----5--4---------------
C|----6--4---6---4--6----6-----6---------------------
G|--6-----6-------6----------------------------------
H H ~~~
A|-----------------------------------------------------
E|-----4---5--4------------------------------------5---
C|--6------------6--4-6--------------4-----------------
G|-------B5--------------6----------4-6----------4---4-
P ~
A|---------------------------------------------------
E|-------2-5--2---2--5------5--4---------------------
C|--4--6--------4------------------------------------
G|---B5-----------------94---------------------------
P P
A|---------------------------------------------------
E|--4--5--4-------------5----------------------------
C|----------6--4-------------------------------------
G|----9---------6--4-6-------------------------------
A|--12---7h9-12-12---9/11--------------------------------
E|-----10-----------7-----7------------------------------
C|------------------------------------------------------
G|--7--------7--7--9-----9---h11-p96---------------------
H P H S ~ ~
A|---------------------------------------------------
E|--5---------------5--------------------------------
C|--4-6--6--6--4----4-6--4----4-6-------4------------
G|---------------6---------6-------------------------
H P H
A|---------------------------------------------------
E|--5-------------------------------5----------------
C|--4-6--6--6--4----4-6--4-----4----2---4------------
G|---------------6---------6---4--------4------------
H P H
A|------------------------------------2--------------
E|--5---------------5-----------5-----0--------------
C|--4-6--6--6--4----4-6--4------2--x-----------------
G|---------------6---------6--4----x--1--------------

 

Tab Kommentare (0)
Noch kein Kommentar vorhanden :(
Brauchen Sie Hilfe, haben Sie einen Tipp zu teilen, oder wollen einfach nur über dieses Lied sprechen? Starte die Diskussion!

Sie müssen angemeldet sein, um an der Diskussion teilnehmen zu können
oder Beitreten

 

Über dieses Lied

Keine Informationen über dieses Lied.