Free Bird (Solo) Tabulatur von Lynyrd Skynyrd

Ukulele Tabs ohne Akkorde.

Tab ins SongBook hinzufügen
Tablature / ChordsFont size: A- A A+

Sie wissen nicht wie man einen Tab oder Akkorde liest ?
Schauen Sie sich diesen uke Unterricht an:

Ukulelen-Unterricht

------------------|------------------|--5--x---0-2-x-1-x-1-x-1-1--x-x-|
------------------|------------------|--3----3-------1---1---1-1------|
------------------|------------------|--7--x-------x---x---x------x-x-|
------------------|------------------|--4------------3-x-3-x-3-3--x-x-|
H
-----------------------------|--5--x---0-2-x-1-x-1-x-1-1--x-x-|
--3--------3----3----3----3--|--3----3-------1---1---1-1------|
--0--x-2-4----4----4----4----|--7--x-------x---x---x------x-x-|
--5--x-----------------------|--4------------3-x-3-x-3-3--x-x-|

-----x------x---x---x---x-----------|---------------------------------------------------|
--3----3-3----3---3---3---6--------|------------------------------------------|
--0--x-0-0--x-0-x-0-x-0-x----------|------------------------------------------|
--5--x-5-5--x-5-x-5-x-5-x----12--7--|--10--10--10---10---10--7--10--10---7--10---10--7--|

-------------------------------------------------------|
-----------------------------------6--------|
--------------------------------------------|
--10--10---15--10---15--10---15--10--15--10-----12--7--|

---------------------------------------------------|
------------------------------------------|
------------------------------------------|
--10--10--10---10---10--7--10--10---7--10---10--7--|

---------------------------------------------------------|
--------------------------------------------|
--------------------------------------------|
--10--10---15--10---15--10---15--10--15--10--15--10--15--|
~ ~ ~ ~ ~ ~ ~ ~
------------------------------------------------------------------|
--------------------------------------------------|
--------------------------------------------------|
--10--15--10--15--10--15--10--15--10--15--10--15--10--15--10--15--|
~ ~ ~ ~ ~ ~ ~
--------------------------------------------------------------|
------------------------------------------------|
------------------------------------------------|
--10--15--10--15--10--15--10--15--10--15--10--15--10---10--7--|

-------------------------------------------------------------------------------------------------|
--------------------------------------------------------------------------------|
--------------------------------------------------------------------------------|
--10--7--10--10--7--10--10--7--10--10--7--10--10--7--10--10--7--10--10--7--10--10--7--10--10--7--|

----------------------------------------------------------------------------------------------|
------------------------------------------------------------------------------|
------------------------------------------------------------------------------|
--7--10--10--7--10--10--7--10--10--7--10--10--7--10--10--7--10--10--7--10--10--7--10--10--7---|
P P P P P
----------------------------------------------------------------------------------|
----b---b---b-------------------------------------------------------------|
--------------------------------------------------------------------------|
--10---10---10---10--7--5--7--10--7--5--7--10--7--5--7--10--7--5--7--10--7--5--7--|
P P P P P P
---------------------------------------------------------------------------------------|
------------------------------------------------------------------------------6--|
---------------------------------------------------------------------------------|
--10--7--5--7--10--7--5--7--10--7--5--7--10--7--5--7--10--7--5--7--10--7--5--7--5------|
~ P ~ P P P P
-----------------------------------------------------------------------------------|
-----6-----------6-----6-----6-----6-----6-----6-----6-----6--------------|
--------------------------------------------------------------------------|
--12-----12--10--12-----12-----5-----5-----12-----5-----12-----5-----5-b10--5-b10--|

----------------------------------------------------------|
--------------------------------------------------|
--------------------------------------------------|
--5-b10--5-b10--5-b10--5-b10--5-b10--5-b10--5-r10--5-r10--|

---------------------------------------------------------------------------|
-----------------------------------------------------------------|
-----------------------------------------------------------------|
--5-r10--5-r10--5-r10--5-r10--5-r10--5-r10--5-r10--5-r10--5-r10--5-r10--5-r|
P
---------------------------------------------------------------------|
-----------------------------------------------------|
--12--12--12--12--12--12--12--12--12--12--12--12--12--12-----------|
--10--10-b10-b10--10-b10-b10--10-b10-b10--10-b10-b10--10-b12--10--7--|
P P P P P
---------------------------------------------------------------------------|
--6-----------6-----------6-----------6-----------6-----------6--|
-----------------------------------------------------------------|
-----12--10--7-----12--10--7-----12--10--7-----12--10--7-----12--10--7-----|
P P P P P P
-----------------------------------------------------------------------------------------------|
------------------------------------6---------------------------------------|
----------------------------------------------------------------------------|
--12---12--7--10--12--10--12--10--12--10--7-----12---12--7--10--12--10--12--10--12--10--7--10--|
P P P P P P
------------------------------------------------------------------------------------------------|
----------------------------------------------------------------------------|
----------------------------------------------------------------------------|
--12---12--7--10--12--10--12--10--12--10--7--10--12---12--7--10--12--10--12--10--12--10--7--10--|

-----------------------------------------------------------|
------------6------------6------------6------------|
---------------------------------------------------|
--12---10--7-----12---10--7-----12---10--7-----12---10--5-b|

------------------------------------------------------------------------------------------|
-----6--------------6--------------6--------------6--------------6--------------|
--------------------------------------------------------------------------------|
--5-----12--10--5-b5-----12--10--5-b5-----12--10--5-b5-----12--10--5-b5-----12--10--5-b5--|

---------------------------------------------------------------------|
--------------6--------------6------------------------6--6--6--|
---------------------------------------------------------------|
--12--10--5-b5-----12--10--5-b5-----12--10--5-b5-b-5-b5--5-----------|
-----------17---------17---------17---------17--|
-----19--------------------------------------|
----------------b------------r------b-------|
--12-----12-----10---10-----10--10------10---10-----|
------------------------------------------17--|
------------------------------------18--------|
----b--b------b------b------b-----b----------|
--10--10---15--10---15--10---15--10--15--10------12-----|

---------------------------------------------------|
------------------------------------------|
-------b--b---b------------r------b-------|
--10--10--10---10---10--7--10--10---7--10---10--7--|

----------------------------------------------|
---------6------6---------------------|
----b--b------b------b---b---b---b----|
--10--10------10------10---10---10---10---10--|

------------------------------------------------------|
------------------------------------------|
-------------------10---------10---------10--|
--12---12--10--12---12--10--12---12--10--12---12--10--|

---------------------------------------------------|
----------------------------------------|
---------10---------10-------b---b---b----|
--12---12--10--12---12--10--12--12---12---12---10--|

---------------------------------------------------------------|
-------------------6-----------6---------6-----------6--|
---------10----------------------------------------------|
--12---12--10--12---12-----4--5--5-r---12---12-----4--5--5-r---|

--------------------------------------------------|
----------------------------------------|
---------------------------b---b---b----|
--12---12--10--12---12--10--12--12---12---12---9--|
P
--------------------------------------------------|
-----------------------------------6---6---|
-------------------------------------------|
--12---9--12---12--14--12--9--12---9--12----b-----|

------------------------------------------------------|
-----6-------------------------------1-3-6-3-|
-------------------b---b---b---b---b---------|
--12-----12--10--12--10---10---10---10---10-----------|
P P P P P P P P P P P
------------------------------------------------------------------|
--5-3-1-3-6-3-5-3-1-3-6-3-5-3-1-3-6-3-5-3-1-3-6-3-5-3-1-3-6-3-5-3-|
------------------------------------------------------------------|
------------------------------------------------------------------|
P P P P P P P P S
----------------------------------------------------------|
--1-3-6-3-5-3-1-3-6-3-5-3-1-3-6-3-5-3-1-3-6-3-5-3--------|
---------------------------------------------------------|
------------------------------------------------------12--|
P P P P P P P
---------------------------------------------------------------------------------------------|
--------------------------------------------------------------------------------|
--------------------------------------------------------------------------------|
--10--7--5--12--10--7--5--12--10--7--5--12--10--7--5--12--10--7--5--12--10--7--5--12--10--7--|
P P P P P P P
---------------------------------------------------------------------------------------------|
--------------------------------------------------------------------------------|
--------------------------------------------------------------------------------|
--10--7--5--12--10--7--5--12--10--7--5--12--10--7--5--12--10--7--5--12--10--7--5--12--10--7--|
P P P P P P P
---------------------------------------------------------------------------------------------|
--------------------------------------------------------------------------------|
--------------------------------------------------------------------------------|
--10--7--5--12--10--7--5--12--10--7--5--12--10--7--5--12--10--7--5--12--10--7--5--12--10--7--|
P P P P P P P
---------------------------------------------------------------------------------------------|
--------------------------------------------------------------------------------|
--------------------------------------------------------------------------------|
--10--7--5--12--10--7--5--12--10--7--5--12--10--7--5--12--10--7--5--12--10--7--5--12--10--7--|
P P P P P P P P P
--------------------------------------------------------------------------------------------------|
---------------------------------------------------------------------------------|-
---------------------------------------------------------------------------------|
--7--15--12--7--15--12--7--15--12--7--15--12--7--15--12--7--15--12--7--15--12--7--15--12--7--15---|
P P P P P P P P P
------------------------------------------------------------------------------------------|---6--------6--------6--------6--------6--------6--------6--------6--------6------|
---------------------------------------------------------------------------------|
-----10--7-----10--7-----10--7-----10--7-----10--7-----10--7-----10--7-----10--7-----10---|

------------------------------------------------|
----b----b----b--b--r-------------------|
----------------------------------------|
--10----10----10--10--10---10--10--10--7--7--7--|

----------------------------------------|
-------------------------------6--6--6--|
----------------------------------------|
--5----5----5--5--5---5--5--5-----------|

------------------------------------------------|
--3--3--6-3-6-3-6-1---6-3--3--6-3-6-3-6-1---6-|
--------------------2---------------------2---|
----------------------------------------------|
P
--------------------------------------------|----------------------------------|
--3--6-1---6-3--6-1---6-3--6-1---6-3-----|--3----3--3-5----3----3--3-5--3---|
---------2----------2----------2-------4-|-----4---------4----4-----------4-|
-----------------------------------------|----------------------------------|

-----------------------------------|---------------------------------|
--3----3----3-5---5--5--6--5---3---|--3--5---5---5-----5---5---5--5--|
-----4----4----------------------4-|---------------------------------|
-----------------------------------|---------------------------------|

----------------------------------------|--7----7----7----7----7----7----7----7----|
---5--5--5---5--5--5---5--5--5-----3-5--|----------------------------------|
---------------------------------4------|----------------------------------|
----------------------------------------|--7---7---7---7---7---7---7---7---|
P
--7-------7----7---7--------7-------7-------7---7---|--7----7----7----7----7----7----7----7----|
-------------------3------------------------|----------------------------------|
------4--------------4------4------4--------|----------------------------------|
--7---7--7---7--7----7--7---7--7---7--7--7--|--7---7---7---7---7---7---7---7---|
P
--7-------7----7---7--------7-------7-------7---7---|--7----7----7----7----7----7----7----7----|
-------------------3------------------------|----------------------------------|
------4--------------4------4------4--------|----------------------------------|
--7---7--7---7--7----7--7---7--7---7--7--7--|--7---7---7---7---7---7---7---7---|

--7----7----7----7----7----7----7----7----|
----------------------------------|
----------------------------------|
--7---7---7---7---7---7---7---7---|
P P
--7-------7----7---7--------7-------7----7---7--------|
-------------------3---------------------3----|
------4--------------4------4--------------4--|
--7---7--7---7--7----7--7---7--7---7--7----7--|
P
--7-------7----7---7--------7-------7-------7-------|
-------------------3------------------------|
------4--------------4------4------4--------|
--7---7--7---7--7----7--7---7--7---7--7--10--|

---------------------------------------------|
----------------------------------------|
----------------------------------------|
--5---10--5---10--5---10--5---10--5---10--5--|

------------------------------------------------------|
-----------------------------------------------|
-----------------------------------------------|
---10--5--10--5--10--5--10--5--10--5--10--5--10--5--x-|

---------------------------------------------------|
----------------------------------------|
----------------------------------------|
--10---15--10---15--10---15--10---15--10---15--10--|

---------------------------------------------------------|
----------------------------------------22--|
--------------------------------------------|
---15--10--15--10--15--10--15--10--15--10--15--10-------|

--44-----44-----44-----44-----44-----44-|
------22-----22-----22-----22-----22----|
----------------------------------------|
----------------------------------------|

------44----44----44----44----44----44----44----|
---22----22----22----22----22----22----22----22-|
------------------------------------------------|
------------------------------------------------|

--44----44----44----44----44----44----44----44----|
-----22----22----22----22----22----22----22----22-|
--------------------------------------------------|
--------------------------------------------------|

--44----44----44----44----44----44----44----44-44-44-44-44-44-44-44-44-44-44-44--|
-----22----22----22----22----22----22----22----22-22-22-22-22-22-22-22-22-22-22--|
---------------------------------------------------------------------------------|
---------------------------------------------------------------------------------|

---------------------------------------|
---3------6--3-6---6-----3-6--------6--|
---------------------------------------|
------5---------------5-------5--5-----|

-------------------------------------------|
-----3-6-----6--3----3-6-----6---3--------|
------------------------------------------|
--5-------5-------5-------5---------5--12--|
P P P P P P P
---------------------------------------------------------------------------------------------|
--------------------------------------------------------------------------------|
--------------------------------------------------------------------------------|
--10--7--5--12--10--7--5--12--10--7--5--12--10--7--5--12--10--7--5--12--10--7--5--12--10--7--|

---------------------------------------------|
----------------------------------------|
----------------------------------------|
--10---10---10---10--7--10---7--5--7---5--4--|
P P P P P P
---------------------------------------------------------------------------------------|
---------------------------------------------------------------------------------|
---------------------------------------------------------------------------------|
--5---4--12--4--7--4--12--4--7--4--12--4--7--4--12--4--7--4--12--4--7--4--12--4--7--4--|
P P H H P
--------------------------------------------------|
--------------------------------------------------|
--------------------------------------------------|
--7-b-7-b-7-r-7--7--7--5--5--5--5--4--5--4--5--4--|
S H H H H H H H H H
--------------------------------------------------------------|
------3-----3-----3-----3-----3-----3-----3-----3-----3-----3-|
----------2-----2-----2-----2-----2-----2-----2-----2-----2---|
--4-----4-----4-----4-----4-----4-----4-----4-----4-----4-----|
H H H H H H H H H H S
-------------------------------------------------------------|
------3-----3-----3-----3-----3-----3-----3-----3-----3------|
----2-----2-----2-----2-----2-----2-----2-----2-----2-----2--|
--4-----4-----4-----4-----4-----4-----4-----4-----4-----4----|
S S S S
-----------------7-7-7-7-5-5-3-|-------------------------------|
--3--3--3--3-3-3---------------|------3-----3---------------3--|
-------------------------------|-------------------------------|
-------------------------------|--5-4---5-4---5b-5--5-4-5-4----|
P
----------------------------------|-----------------------------------|
--3----3--3-5----3----3--3-5--3---|--3----3----3-5---5--5--5--5---3---|
-----4---------4----4-----------4-|-----4----4----------------------4-|
----------------------------------|-----------------------------------|

-------------------------------------|---------------------------------------|
--3--5---5---5---5---5--5---5--5--5--|---5--5--5---5--5--5---5--3---3---3-5--|
-------------------------------------|----------------------------4---4------|
-------------------------------------|---------------------------------------|

--7---7---7-----7---7----7----7----7----7----|
------------------------------------|
------------------------------------|
--7--7--7----7--7---7---7---7---7---|
P
--7-------7----7---7--------7-------7-------7---7---|--7----7----7----7----7----7----7----7----|
-------------------3------------------------|----------------------------------|
------4--------------4------4------4--------|----------------------------------|
--7---7--7---7--7----7--7---7--7---7--7--7--|--7---7---7---7---7---7---7---7---|
P
--7-------7----7---7--------7-------7-------7---7---|--7----7----7----7----7----7----7----7----|
-------------------3------------------------|----------------------------------|
------4--------------4------4------4--------|----------------------------------|
--7---7--7---7--7----7--7---7--7---7--7--7--|--7---7---7---7---7---7---7---7---|
P
--7-------7----7---7--------7-------7-------7---7---|--7--------7--------7--------7--------|
-------------------3------------------------|-------3-------3-------3-------3--|
------4--------------4------4------4--------|----------------------------------|
--7---7--7---7--7----7--7---7--7---7--7--7--|--7-------7-------7-------7-------|
P
--7-------7----7---7--------7-------7-------7---7---|--7----7----7----7----7----7----7----7----|
-------------------3------------------------|----------------------------------|
------4--------------4------4------4--------|----------------------------------|
--7---7--7---7--7----7--7---7--7---7--7--7--|--7---7---7---7---7---7---7---7---|
P
--7-------7----7---7--------7-------7-------------|
-------------------3---------------x-------|
------4--------------4------4--------------|
--7---7--7---7--7----7--7---7--7-----7--10--|
~ ~ ~ ~
--------------------------------------------------|
------------------------------------------|
------------------------------------------|
--12---7--10--12---7--10--12---7--10--12---7--10--|
~ ~ ~ H
---------------------------------------------------------|
-----------------------------------------------|
-----------------------------------------------|
--12---7--10--12---7--10--10--10--10--10---10--7--7--10--|
P ~ P ~ P ~
----------------------------------------------------------------------------|
------------------------6-----------------6-----------------6--|
---------------------------------------------------------------|
--10---10--7--10--10--10--7-----10--10--10--10--7-----10--10--10--10--7-----|
P P
--------------------------------------------------------------------------|
-----------------6-----------------6----------------6--------|
-------------------------------------------------------------|
--10--10--10--10--7-----10--10--10--10--7-----10--10--10---10------12--7--|
P P P P P P P P P
--------------------------------------------------------------------------------------------------|
--------------------------------------------------------------------------------|
--------------------------------------------------------------------------------|
--15--12--7--15--12--7--15--12--7--15--12--7--15--12--7--15--12--7--15--12--7--15--12--7--15--12--|
P P P P P
--------------------------------------------------------------------------------|
-------------------------------------------------b---b---b-------|
-----------------------------------------------------------------|
--15--12--7--15--12--7--15--12--7--15--12--7--15--12--7--15---15---15---15--12--|
~ P P P P P P
------------------------------------------------------------------------------------|
------------------------------6--------6--------6--------6--------6-----|
------------------------------------------------------------------------|
--10--10--10--10---10--10--7--10--7-----10--7-----10--7-----10--7-----10--7-----10--|
P P P P P P P P
----------------------------------------------------------------------------------------|
-----6--------6--------6--------6--------6--------6--------6--------6--------6--|
--------------------------------------------------------------------------------|
--7-----10--7-----10--7-----10--7-----10--7-----10--7-----10--7-----10--7-----10--7-----|

------------------------------------------------|------------------------------|
----------------------------------------|------------6-----3-----3-----|
----------------------------------------|------------------------5-----|
--10----10---10--10----12--12--12--12--7--7--7--|--5-b5-b5-r---r-----r-----r---|
S
-------7----5---5---5--|--5--5--5--5--5--5--5--5-5-|
--1--------------------|---------------------------|
--3----2---------------|---------------------------|
---r----r---5b--5b--5b-|--5b-5b-5b-5b-5b-5b-5b-5b--|
S S S S S S S S
-----------5----------5----------5----------5-|
--6--6-------6--5-------6--6-------6--5-------|
----------------------------------------------|
--------5----------5----------5----------5----|
S S S S
-----------5----------5-------------------|
--6--6-------6--5-------6--6----------6---|
------------------------------------------|
--------5----------5----------5---5-------|
P H S
-------------------------------------------|-----------------------------------|
--3---3---3---3----------------------------|--3-----3--3-5----3-5----3----3-5--|
------------------5--5--5---5--------------|------4---------4------4----4------|
-------------------------------7--5--7--5--|-----------------------------------|

--7----7----7----7----7----7----7----7----|--7----------------7-----------------|
----------------------------------|---------------------------------3-|
----------------------------------|-----------------------------------|
--7---7---7---7---7---7---7---7---|--7---7---7---7---7---7---7---7----|
~ P H P
--7----7------7-----7----7-----7---7------------|
---------------3----------------3-5--3---|
------------------------4--------------4-|
--7---7-----7----7---7----7--7-----------|
P S
--7-------7----7---7--------7-------7------------|
-------------------3-----------------6-----|
------4--------------4------4------3-------|
--7---7--7---7--7----7--7---7--7--------7--|
~
-----------------------------------------------|
----------------6-------6--------6--------|
------------------------------------------|
--10---7--10--5-r----5-------12--5-----12--10--|
--U-pN-----N-----------------------N-------------5--|
--------V-----N--V--N--N--V--N--N-----N--U-b-N-/-5--|
----------------------------------------------------|
----------------------------------------------------|
--5--x-5-5--x-1-x-1-x-1-1---x-|--3--x-3-3--x-3-3-3-3-3-3-3-3-3-|
--3--x-3-3--x-----------------|--------------------------------|
--7--x-7-7--x-5-x-5-x-5-5---x-|--7--x-7-7--x-7-7-7-7-7-7-7-7-7-|
--------------3-x-3-x-3-3---x-|--5--x-5-5--x-5-5-5-5-5-5-5-5-5-|
--5--x-5-5--x-1-x-1-x-1-1---x-|--3--x-3-3--x-3-3-3-3-3-3-3-3-3-|
--3--x-3-3--x-----------------|--------------------------------|
--7--x-7-7--x-5-x-5-x-5-5---x-|--7--x-7-7--x-7-7-7-7-7-7-7-7-7-|
--------------3-x-3-x-3-3---x-|--5--x-5-5--x-5-5-5-5-5-5-5-5-5-|
--5----5-5-5-5-5-5-5-5-5-5-5-5-5-5-5-5-5-5-5-5-|
--3----3-3-3-3-3-3-3-3-3-3-3-3-3-3-3-3-3-3-3-3-|
--7----7-7-7-7-7-7-7-7-7-7-7-7-7-7-7-7-7-7-7-7-|
--4----4-4-4-4-4-4-4-4-4-4-4-4-4-4-4-4-4-4-4-4-|

--5-5-5-5-5-5-5-5-5-5-5-5-5-5-5-5-5-5-5-5-5-5-5-5-5-5-5-5-5-5-5-5-|----------|
--3-3-3-3-3-3-3-3-3-3-3-3-3-3-3-3-3-3-3-3-3-3-3-3-3-3-3-3-3-3-3-3-|--3-------|
--7-7-7-7-7-7-7-7-7-7-7-7-7-7-7-7-7-7-7-7-7-7-7-7-7-7-7-7-7-7-7-7-|--2-------|
--4-4-4-4-4-4-4-4-4-4-4-4-4-4-4-4-4-4-4-4-4-4-4-4-4-4-4-4-4-4-4-4-|--4-------|
--8--8-8-8-8-8-8-8-8-8-8-8-8-8-8-8-8-8-8-8-8-8-8-8-8-8-8-|
--6--6-6-6-6-6-6-6-6-6-6-6-6-6-6-6-6-6-6-6-6-6-6-6-6-6-6-|
--10--10-10-10-10-10-10-10-10-10-10-10-10-10-10-10-10-10-10-10-10-10-10-10-10-10-10-|
--7--7-7-7-7-7-7-7-7-7-7-7-7-7-7-7-7-7-7-7-7-7-7-7-7-7-7-|
--8-8-8-8-8-8-8-8-8-8-8-8-8-8-8-8-8-8-8-8-8-8-8-8-8-8-8-8-8-8-8-8-|
--6-6-6-6-6-6-6-6-6-6-6-6-6-6-6-6-6-6-6-6-6-6-6-6-6-6-6-6-6-6-6-6-|
--10-10-10-10-10-10-10-10-10-10-10-10-10-10-10-10-10-10-10-10-10-10-10-10-10-10-10-10-10-10-10-10-|
--7-7-7-7-7-7-7-7-7-7-7-7-7-7-7-7-7-7-7-7-7-7-7-7-7-7-7-7-7-7-7-7-|

--7--7--7--7--7--7--7--7--7--7--7--7--7--7--7--7--7--7--7--7--7--7--7--7--7--7--7--7--7--7--7--7--|----------|
--6-6-6-6-6-6-6-6-6-6-6-6-6-6-6-6-6-6-6-6-6-6-6-6-6-6-6-6-6-6-6-6-|--6-------|
--10-10-10-10-10-10-10-10-10-10-10-10-10-10-10-10-10-10-10-10-10-10-10-10-10-10-10-10-10-10-10-10-|--5-------|
--7-7-7-7-7-7-7-7-7-7-7-7-7-7-7-7-7-7-7-7-7-7-7-7-7-7-7-7-7-7-7-7-|--7-------|
--10--10--10--10--10--10--10--10--10--10--10--10--10--10--10--10--10--10--10--10--10--10--10--10--10--10--|
--8--8--8--8--8--8--8--8--8--8--8--8--8--8--8--8--8--8--8--8--8--8--8--8--8--8--|
--12--12--12--12--12--12--12--12--12--12--12--12--12--12--12--12--12--12--12--12--12--12--12--12--12--12--|
--9--9--9--9--9--9--9--9--9--9--9--9--9--9--9--9--9--9--9--9--9--9--9--9--9--9--|
--10--10--10--10--10--10--10--10--10--10--10--10--10--10--10--10--10--10--10--10--10--10--10--10--10--10--|
--8--8--8--8--8--8--8--8--8--8--8--8--8--8--8--8--8--8--8--8--8--8--8--8--8--8--|
--12--12--12--12--12--12--12--12--12--12--12--12--12--12--12--12--12--12--12--12--12--12--12--12--12--12--|
--9--9--9--9--9--9--9--9--9--9--9--9--9--9--9--9--9--9--9--9--9--9--9--9--9--9--|
--10--10--10--10--10--10--10--10--10--10--10--10--10--10--10--10--10--10--10--10--10--10--10--10--10--10--|
--8--8--8--8--8--8--8--8--8--8--8--8--8--8--8--8--8--8--8--8--8--8--8--8--8--8--|
--12--12--12--12--12--12--12--12--12--12--12--12--12--12--12--12--12--12--12--12--12--12--12--12--12--12--|
--9--9--9--9--9--9--9--9--9--9--9--9--9--9--9--9--9--9--9--9--9--9--9--9--9--9--|
--10--10--10--10--10--10--10--10--10--10--10--10--10--10--10--10--10--10--10--10--10--10--10--10--10--10--|
--8--8--8--8--8--8--8--8--8--8--8--8--8--8--8--8--8--8--8--8--8--8--8--8--8--8--|
--12--12--12--12--12--12--12--12--12--12--12--12--12--12--12--12--12--12--12--12--12--12--12--12--12--12--|
--9--9--9--9--9--9--9--9--9--9--9--9--9--9--9--9--9--9--9--9--9--9--9--9--9--9--|
--10--------|---------------------13--15--------------15-----------|
--8--------|--15-~-------------15--------------------------------|
--12--------|---------------------------------------------------|
--9--------|---------------------------7--10--8--7-----7--8--10--|
~ P P H P P P H P P P
------------------------------------------------------------------------------|
----------------------------------------------------6--------------6--5--|
-------------------------------------------------------------------------|
--10---------10---10--8--7--5--7--8--10--8--10--8--7--5-----7--8--7--5--------|
--12-h13-p12------------------------12--13--12-----13--13--15-----------15--13-----|
-----------15-p13-p12------12--13--15-----------15--------------------------13--|
------------------------------------------------------------------------|
------------------------------------------------------7--8--7-----------|
----------------M-----|
--N-b-----------------|
----------------------|
----------------------|
----------17--------17-p15-p13-----15-p13-----15-p13-----15-p13-----|
----------------------------15--------15--------15--------15--|
----------------------------------------------------------|
-------------12--10-----------------------------------------|

----b----b--b------------|
--6----6--6--------------|
-------------------------|
--------------------4----|
S
------5---7---7---7---7---7---7---7---7---7---7---7---7---7---7---7---7---7---7---|
----------------------------------------------------------------|
----------10--11--11--11--11--11--11--11--11--11--11--11--11--11--11--11--11--11--|
------4---7--7--7--7--7--7--7--7--7--7--7--7--7--7--7--7--7--7--|

----------------------------------------------------------------------------------------------------------|
--------------------------------------------------------------------------------|
--11--11--11--11--11--11--11--11--11--11--11--11--11--11--11--11--11--11--11--11--11--11--11--11--11--11--|
--12--12--12--12--12--12--12--12--12--12--12--12--12--12--12--12--12--12--12--12--12--12--12--12--12--12--|

----------------------------------------------------------------------------------------------------------|
--------------------------------------------------------------------------------|
--11--11--11--11--11--11--11--11--11--11--11--11--11--11--11--11--11--11--11--11--11--11--11--11--11--11--|
--12--12--12--12--12--12--12--12--12--12--12--12--12--12--12--12--12--12--12--12--12--12--12--12--12--12--|

----------------------------------------------------------------------------------------------------------|
--------------------------------------------------------------------------------|
--11--11--11--11--11--11--11--11--11--11--11--11--11--11--11--11--11--11--11--11--11--11--11--11--11--11--|
--12--12--12--12--12--12--12--12--12--12--12--12--12--12--12--12--12--12--12--12--12--12--12--12--12--12--|

----------------------------------------------------------------------------------------------------------|
--------------------------------------------------------------------------------|
--11--11--11--11--11--11--11--11--11--11--11--11--11--11--11--11--11--11--11--11--11--11--11--11--11--11--|
--12--12--12--12--12--12--12--12--12--12--12--12--12--12--12--12--12--12--12--12--12--12--12--12--12--12--|
S
----------|--5----5------------|------------------||
--3-------|--3----3------------|------------------||
--2-------|--7----7------------|------------------||
--4-------|--------------------|------------------||

 

Tab Kommentare (0)
Noch kein Kommentar vorhanden :(
Brauchen Sie Hilfe, haben Sie einen Tipp zu teilen, oder wollen einfach nur über dieses Lied sprechen? Starte die Diskussion!

Sie müssen angemeldet sein, um an der Diskussion teilnehmen zu können
oder Beitreten

 

Über dieses Lied

Keine Informationen über dieses Lied.