Ghost Duet Tabulatur von Louie Zong

Ukulele Tabs ohne Akkorde.

Tab ins SongBook hinzufügen
Tablature / ChordsFont size: A- A A+

Sie wissen nicht wie man einen Tab oder Akkorde liest ?
Schauen Sie sich diesen uke Unterricht an:

Ukulelen-Unterricht

# The / means slide to that tab so 5/7 slide from 5 to 7 then 5/7/5 slide to 7 # from five then slide back to five (sliding isn't mandatory but sounds more  # put together)

A|-----5/7--------5/7/5-3/4-0-0-0--5/7-5/7|
E|--3-5----3-5----5/7/5-3/4---------------|
C|------------2/4-------------------------|
G|---------------------------0-0----------|



A|-3-0-0--5/7-5/7-------5/7-5/7--3--------|
E|----------------3333--5/7-5/7--0--------|
C|-------------------------------0--------|
G|----0--------------------------0--------|

 

Tab Kommentare (2)
Sie müssen angemeldet sein, um an der Diskussion teilnehmen zu können
oder Beitreten

 

Omael2005 avatar
flag for US(ISO2) (Glendale )
yea um confused
23 Jul 2020
crawlycrawls avatar
not terrible but some parts seem off
27 Jul 2018
Über dieses Lied

Keine Informationen über dieses Lied.