Monkey Tabulatur von Los Outsaiders

7 Im Lied verwendete Ukulelengriffe: F7, Gm6, A#7, F, Gm, Am, C

Tab ins SongBook hinzufügen
Tablature / ChordsFont size: A- A A+

Sie wissen nicht wie man einen Tab oder Akkorde liest ?
Schauen Sie sich diesen uke Unterricht an:

Ukulelen-Unterricht

F7 F7 Gm6 Gm6 F7 F7  A#7 A#7

F F Gm Gm Am Am A#7 A#7
El mundo entero muy pronto acabará
F F Gm Gm Am Am A#7 A#7 C C
Los días vuelan, no es tiempo de verdad
F F Gm Gm Am Am A#7 A#7
Si no estás tú


F F Gm Gm Am Am A#7 A#7
Miles de cuerpos se cruzan al azar
F F Gm Gm Am Am A#7 A#7 C C
Tocan mi puerta y no los dejo entrar
F F Gm Gm Am Am A#7 A#7
Si no estás tú


SOLO:
F F Gm Gm Am Am A#7 A#7
F F Gm Gm Am Am A#7 A#7 C C

A|-----------------------------|
E|--------8--------------------|
C|-7/9-10---9-5—7-7h9-7-5-4-3--|
G|-----------------------------|

A|--------------------------------|
E|--------8-----------------------|
C|-7/9-10---9-5—10-10h12-10-9-7-5-|
G|--------------------------------|

A|---------------------------|
E|---------------------------|
C|-5-4-2-0—5-0-2—5-2-0—5-0-3-|
G|---------------------------|


F F Gm Gm Am Am A#7 A#7
Yo me pregunto si tú regresarás
F F Gm Gm Am Am A#7 A#7 C C
Es tan difícil sentir felicidad
F F Gm Gm Am Am A#7 A#7
Si no estás tú


A|--------------------------------------------------|
E|--------------------------------------------------|
C|--------------------------------------------------|
G|-7/10--9--7--5--9--5----------7/10--9--7--5—9--5--|

 

Tab Kommentare (0)
Noch kein Kommentar vorhanden :(
Brauchen Sie Hilfe, haben Sie einen Tipp zu teilen, oder wollen einfach nur über dieses Lied sprechen? Starte die Diskussion!

Sie müssen angemeldet sein, um an der Diskussion teilnehmen zu können
oder Beitreten

 

Über dieses Lied

Keine Informationen über dieses Lied.