Dancing With Tears In My Eyes Tabulatur von Leadbelly

Ukulele Tabs ohne Akkorde.

Tab ins SongBook hinzufügen
Tablature / ChordsFont size: A- A A+

Sie wissen nicht wie man einen Tab oder Akkorde liest ?
Schauen Sie sich diesen uke Unterricht an:

Ukulelen-Unterricht

A|--------2----2-----|--------2----------|-------------------|--------2--2--0--0-|
E|---3----3----3-----|---3----3------0---|--------2--2--0--0-|-------------------|
C|--------2----2-----|--------2---2-----2|-------------------|--2--2-------------|
G|--------0----0-----|--------0----------|--0--0-------------|-------------------|

Dancing with tears in my

A|-2-2-------------2-|--0-2-----------5--|---------------4---|-------------4--4--|
E|------3--3-------0-|----------------2--|-------0---2---2---|--0--2--0----0--0--|
C|------------6--4---|------1----2----2--|---2---------------|-------------------|
G|-----------------1-|----------------2--|---------------3---|-------------2--2--|

eyes 'cus the girl in my arms isn’t you

A|----2---2----------|-------------------|--------------0----|-------------------|
E|-------------------|-------------------|----2----0---------|-----------0--0----|
C|--------2-----2----|-------------------|-------------------|----0------0--0----|
G|--------0----------|----2----2----0----|-------------------|-----------0--0----|

Dancing with some body new

A|--------2----------|--0-2---------5----|---------------4---|---------2---2--2---|
E|---3----3----------|--------------2----|-------0---2---2---|--0-2--------2--2---|
C|--------2----------|------1---2---2----|---2---------------|------2------3--3---|
G|--------0----------|--------------2----|---------------3---|-------------2--2---|

When it’s you that my hearts calling to.

A|---------2-----0---|--2------------4-4-|---------2-0-------|-----2--0----4-4---|
E|---------0---------|------------0--0-0-|----------------1--|-------------0-0---|
C|----6----2---------|---2-02-12---------|---2--1------1--1--|--1----------------|
G|---------0---------|---------------2-2-|----0--0--------0--|-------------2-2---|

Trying to smile, once in a while but i’ll find

A|------4------------|----4--4--4--4-----|-------------------|-------2--0--0-2---|
E|---0--0-------0----|-2--2--2--2--2-----|----0--------2--0--|-------------------|
C|-----------2-------|-------------------|--2---2------------|--2----------------|
G|------2------------|----3--3--3--3-----|----------0--------|-------------------|

It just wont do dancing with tears in my eyes

A|--------------2----|--------------4----|--------------4----|---------2--2--2---|
E|--3--3--------0----|------0---2---2----|--0---2---0---0----|---------3--3--3---|
C|--------6--4-------|--2----------------|-------------------|---2-----2--2--2---|
G|--------------1----|--------------3----|--------------2----|------0--0--0--0---|

'Cus the girl in my arms ain't you.


--Tabbed & Arranged by: Joe Studer, AKA StuNasty55
--Ukulele Conversion by: Monokid

 

Tab Kommentare (0)
Noch kein Kommentar vorhanden :(
Brauchen Sie Hilfe, haben Sie einen Tipp zu teilen, oder wollen einfach nur über dieses Lied sprechen? Starte die Diskussion!

Sie müssen angemeldet sein, um an der Diskussion teilnehmen zu können
oder Beitreten

 

Über dieses Lied

Keine Informationen über dieses Lied.