Le Tourbillon De La Vie Tabulatur von Jeanne Moreau

Ukulele Tabs ohne Akkorde.

9/10
druckenTab ins SongBook hinzufügen

Tablature / Chords (Ganzer Song)

Font size: A- A A+

Künstler: 
Album:  unbekannt
Key: unbekanntTabulaturen (ohne Akkorde)
A------------0-------------------0-------------------------------------
E---------0-------------------0----------------------------------------
C-----0-------------------0--------------------2--2--2-------2--2--2---
G--0----------------0--0----------------0--0-----------0--0----------0-


A------------0-------------------0--------------------2--2--3----------
E---------0-------------------0-------------------3--------------------
C-----0-------------------0--------------------2-----------------------
G--0----------------0--0----------------0--0---------------------------

Tabulatur von , 27 Jan 2018

Tab Kommentare (0)

Noch kein Kommentar vorhanden :(
Brauchen Sie Hilfe, haben Sie einen Tipp zu teilen, oder wollen einfach nur über dieses Lied sprechen? Starte die Diskussion!

Kommentieren
Teilen Sie Ihre Strumming-Muster, Akkorde oder Tipps zum Spielen dieser Registerkarte mit!

Top Tabs & Akkorde von Jeanne Moreau, verpassen Sie diese Songs nicht!

Über dieses Lied: Le Tourbillon De La Vie

Keine Informationen über dieses Lied.

Haben Sie Le Tourbillon De La Vie auf Ihrer Ukulele gecovert? Teilen Sie Ihr Werk!
Cover abgeben