Demons Tabulatur von Hayley Kiyoko

5 Im Lied verwendete Ukulelengriffe: C#m, F#m, G#, B, A

Song bewerten!
druckenTab ins SongBook hinzufügen

Ansehen dieser Akkorde für Bariton

Transpose chords:
Akkorde:
halten sie während des scrollens akkorde auf dem bildschirm

Tablature / Chords (Ganzer Song)

Font size: A- A A+

Künstler: 
Album:  unbekannt
Schwierigkeit: 
5
(Mittelstufe)
Key: C#mAkkorde
[Intro]

C#m C#m F#m F#m G# G#
Please forgive me, I've got demons in my head
(That's wild, that'll be nuts€”)


[Verse 1]
C#m C#m F#m F#m G# G#
There's something in the €…water
F#m F#m
I don't like €…the flavor
C#m C#m G# G#
I don't like the taste
C#m C#m F#m F#m G# G#
Searching €…for nirvana
F#m F#m C#m C#m G# G#
Something that'll take it all away from me


[Pre-Chorus]

B B
Don't bother me
C#m C#m
My misery
A A
It's holding me
N/C
Won't let me speak


[Chorus]

C#m C#m F#m F#m G# G#
Please forgive me, I've got demons in my head (In my head)
C#m C#m F#m F#m G# G#
Please forgive me, I've got demons in my head
C#m C#m F#m F#m
Tryna eat me, tryna feed me
G# G#
Lies until I'm dead ('Til I'm dead)
C#m C#m F#m F#m G# G#
Please forgive me, I've got demons in my head

In my head

[Riff]

e|-9-9--7-7--------------------------9-9--7-7----------------------------|
B|----------9-9--7-7--9-9---------------------9-9--7-7--9-9-----7-7-------|
G|------------------------9-9--6-6--------------------------9-9----- (x2)-|
D|------------------------------------------------------------------------|
A|------------------------------------------------------------------------|
E|------------------------------------------------------------------------|

[Verse 2]

C#m C#m F#m F#m G# G#
It's creeping in, it's gonna get me, by the end of the night
C#m C#m F#m F#m G# G# N/C
I'm sinking deeper still, I'm reaching for the end of the light
C#m C#m F#m F#m G# G#
Burning in the lava
F#m F#m C#m C#m G# G#
You can't go and pray this type of pain away


[Pre-Chorus]

B B
Don't bother me
C#m C#m
My misery
A A
It's holding me
N/C
Won't let me speak


[Chorus]

C#m C#m F#m F#m G# G#
Please forgive me, I've got demons in my head (In my head)
C#m C#m F#m F#m G# G#
Please forgive me, I've got demons in my head
C#m C#m F#m F#m
Tryna eat me, tryna feed me
G# G#
Lies until I'm dead ('Til I'm dead)
C#m C#m F#m F#m G# G#
Please forgive me, I've got demons in my head


[Bridge]

A A
I feel like I can't breathe
G# G#
I feel like I can't sleep
F#m F#m
How did I not see?
G# G#
I'm unwell
A A
I feel like I can't breathe
G# G#
I feel like I can't sleep
F#m F#m
How did I not see
G# G#
I'm unwell
N/C
(Please forgive me, I've got demons in my head, in my head)
N/C
(Please forgive me, I've got demons in my head)


[Chorus]

C#m C#m F#m F#m G# G#
Please forgive me, I've got demons in my head (In my head)
C#m C#m F#m F#m G# G#
Please forgive me, I've got demons in my head
C#m C#m F#m F#m
Tryna eat me, tryna feed me
G# G#
Lies until I'm dead ('Til I'm dead)
C#m C#m F#m F#m G# G#
Please forgive me, I've got demons in my head

In my head

[Riff]

e|-9-9--7-7--------------------------9-9--7-7-----------------------------|
B|----------9-9--7-7--9-9---------------------9-9--7-7--9-9-----7-7-------|
G|------------------------9-9--6-6--------------------------9-9----- (x2)-|
D|------------------------------------------------------------------------|
A|------------------------------------------------------------------------|
E|------------------------------------------------------------------------|

[Outro]

C#m C#m F#m F#m G# G#
Please forgive me, I've got demons in my head (In my head)
C#m C#m F#m F#m G# G#
Please forgive me, I've got demons in my head

Tabulatur von , 07 Jul 2021

Tab Kommentare (1)

Kommentieren
Teilen Sie Ihre Strumming-Muster, Akkorde oder Tipps zum Spielen dieser Registerkarte mit!
Filtern nach:
angelicaslane821 avatar
Let's rewrite the rules of tonight. How about we make our own ending? f1nd me on angelicaslane_mooo_com change _ to dot
22 Jul 2024
Kommentar

Top Tabs & Akkorde von Hayley Kiyoko, verpassen Sie diese Songs nicht!

Über dieses Lied: Demons

Keine Informationen über dieses Lied.

Haben Sie Demons auf Ihrer Ukulele gecovert? Teilen Sie Ihr Werk!
Cover abgeben