Gentlemen Don't Tabulatur von Gabe Bondoc

9 Im Lied verwendete Ukulelengriffe: Eb, Gm, Cm7, Bm7, Bbm7, Ab, Bb, Bbdim, Ebdim

Tab ins SongBook hinzufügen
Tablature / ChordsFont size: A- A A+

Sie wissen nicht wie man einen Tab oder Akkorde liest ?
Schauen Sie sich diesen uke Unterricht an:

Ukulelen-Unterricht

A|-----------1-----------3---3-2-1-------------------1---1|
E|----1-1/3----1---1/3-1-3---3-2-1---1---4-4---4-1/3-1-1-1|
C|3-3-------3----2-------3-3-3-2-1-3---3-0-2/3-3-0---3-3-2|
G|--------------------------------------------------------|

Eb Eb Gm Gm Cm7 Cm7
you run your fingers across my lips
Bm7 Bm7 Bbm7 Bbm7 Ab Ab Bb Bb
no, i've never felt like this before, no, no, no, no

Eb Eb Gm Gm Cm7 Cm7
i know i'm young, but i know love
Bm7 Bm7 Bbm7 Bbm7 Ab Ab Bb Bb
and i'd know i know an angel if i saw one

Ab Ab
but i know very well
Bb Bb
gentlemen don't kiss and tell
Bbdim Bbdim
i promise i won't tell the world
Ebdim Ebdim Ab Ab
if you say you want to be my girl
Bb Bb
in your own words

A|-----------1-----------3---3-2-1-------------------1---1|
E|----1-1/3----1---1/3-1-3---3-2-1---1---4-4---4-1/3-1-1-1|
C|3-3-------3----2-------3-3-3-2-1-3---3-0-2/3-3-0---3-3-2|
G|--------------------------------------------------------|

Eb Eb Gm Gm Cm7 Cm7
well, i'm just a simple man, simple plans
Bm7 Bm7 Bbm7 Bbm7 Ab Ab
i go to work, take care of fam'
Bb Bb
i'm sure you understand

Eb Eb Gm Gm Cm7 Cm7
because you're heaven sent, independent
Bm7 Bm7 Bbm7 Bbm7 Ab Ab
well, do you think you need me?
Bb Bb
i think i need you girl, baby, can't you see?

Ab Ab
that i know very well
Bb Bb
gentlemen don't kiss and tell
Bbdim Bbdim
i promise i won't tell the world
Ebdim Ebdim Ab Ab
if you say you want to be my girl
Bb Bb
in your own words

A|-----------1-----------3---3-2-1-------------------1---1|
E|----1-1/3----1---1/3-1-3---3-2-1---1---4-4---4-1/3-1-1-1|
C|3-3-------3----2-------3-3-3-2-1-3---3-0-2/3-3-0---3-3-2|
G|--------------------------------------------------------|

no, no, no, no, no
i won't, no, i won't

Ab Ab Bb Bb
cards on the table
Cm7 Cm7
willing and able
Bm7 Bm7 Bbm7 Bbm7
stable, capable
Ab Ab
of holding you down

Bb Bb
i am just sayin'
Bbdim Bbdim
i'm not complainin'
Ebdim Ebdim
your love is worth waitin' for

Ab Ab
but i know very well
Bb Bb
gentlemen don't kiss and tell
Bbdim Bbdim
i promise i won't tell the world
Ebdim Ebdim Ab Ab
if you say you want to be my girl
Bb Bb
in your own words

A|-----------1-----------3---3-2-1-------------------1---1|
E|----1-1/3----1---1/3-1-3---3-2-1---1---4-4---4-1/3-1-1-1|
C|3-3-------3----2-------3-3-3-2-1-3---3-0-2/3-3-0---3-3-2|
G|--------------------------------------------------------|

 

Tab Kommentare (0)
Noch kein Kommentar vorhanden :(
Brauchen Sie Hilfe, haben Sie einen Tipp zu teilen, oder wollen einfach nur über dieses Lied sprechen? Starte die Diskussion!

Sie müssen angemeldet sein, um an der Diskussion teilnehmen zu können
oder Beitreten

 

Über dieses Lied

Keine Informationen über dieses Lied.