Rainbow In The Dark Tabulatur von Dio

Ukulele Tabs ohne Akkorde.

Song bewerten!
druckenTab ins SongBook hinzufügen

Tablature / Chords (Ganzer Song)

Font size: A- A A+

Künstler: 
Album: 
Jahr:  1983
Key: unbekanntTabulaturen (ohne Akkorde)
# This riff is played through most of the song

---------------------|-----------------|
-10---------6----6-8-|-----------------|
-9----------5----5-7-|-----------------|
-7----3--2--3--2-3-5-|------5-10-9-7-5-|


# There's a couple ways to play the synth hook

-----3-7-----3---|--3---3---3---3---|
---5-------5---3-|----3---3---3---3-|
---------5-------|------------------|
-----------------|------------------|

# or

-------7---------|------------------|
---5-------5-----|------------------|
---------5-----9-|----9---9---9---9-|
-----5-------7---|--7---7---7---7---|

# Pre-chorus

----7--7-----|----8---------|----7--7-----|-------------|
-5--5--5---6-|----6-------5-|----5--5---6-|-------------|
-4---------5-|------------4-|-----------5-|-------7-----|
-2---------3-|--------5-3-2-|-----------3-|---2-3-5-----|

# Play that first riff a billion times after pre-chorus

Tabulatur von , 21 Apr 2016

Tab Kommentare (0)

Noch kein Kommentar vorhanden :(
Brauchen Sie Hilfe, haben Sie einen Tipp zu teilen, oder wollen einfach nur über dieses Lied sprechen? Starte die Diskussion!

Kommentieren
Teilen Sie Ihre Strumming-Muster, Akkorde oder Tipps zum Spielen dieser Registerkarte mit!

Über dieses Lied: Rainbow In The Dark

Keine Informationen über dieses Lied.

Haben Sie Rainbow In The Dark auf Ihrer Ukulele gecovert? Teilen Sie Ihr Werk!
Cover abgeben