Enjoy The Silence Tabulatur von Depeche Mode

Ukulele Tabs ohne Akkorde.

8.8/10
druckenTab ins SongBook hinzufügen

Tablature / Chords (Ganzer Song)

Font size: A- A A+

Künstler: 
Jahr:  1990
Key: unbekanntTabulaturen (ohne Akkorde)
A|--------3------------------------3---------------|
E|---------------------4------------------------4--|
C|3-----3-----3-----3------3-----3-----3-----3----|
G|---3-----------3------------3-----------3-------|



A|-----------------3----------------------|
E|----4-----------------------------------| x2
C|-0-----0------3----3--------------------|
G|---------0-----------3------------------|

⇢ Nicht zufrieden mit dieser Tabulatur? 5 andere Version(en) anzeigen

Tabulatur von , 08 Jun 2013

Tab Kommentare (1)

Kommentieren
Teilen Sie Ihre Strumming-Muster, Akkorde oder Tipps zum Spielen dieser Registerkarte mit!
Filtern nach:
Dendo avatar
You could add the riff after the second refrain:
A|----3---5---6-----1-----------1-----------------|
E|--4---4---4-------------------------------------| x3
C|----------------3---3-------3---3---------------|
G|----------------------0-----------0-------------|

A|----3---5---6-----1-----------1----------1----3-||
E|--4---4---4----------------------------3--------||
C|----------------3---3-------3------0-3--------0-||
G|----------------------0-------------------------||
03 Nov 2013
Berichtigung

Top Tabs & Akkorde von Depeche Mode, verpassen Sie diese Songs nicht!

Über dieses Lied: Enjoy The Silence

Keine Informationen über dieses Lied.

Haben Sie Enjoy The Silence auf Ihrer Ukulele gecovert? Teilen Sie Ihr Werk!
Cover abgeben