Smooth Tabulatur von Carlos Santana

Ukulele Tabs ohne Akkorde.

Tab ins SongBook hinzufügen
Tablature / ChordsFont size: A- A A+

Sie wissen nicht wie man einen Tab oder Akkorde liest ?
Schauen Sie sich diesen uke Unterricht an:

Ukulelen-Unterricht

H           H              
|-----------------------------
|-------3-----3--5------------
|-----------------------------
|-7--9-----9------------------

---------------------------------------
-4--5--------------5--------5----------
---------------------------------------
-------4--4--5--4-----4--5-------------
H H H P
|-----------------------------------------------------|
|---------5---------------------------5--4-----4--5--|
|----------------------------------------------------|
|-9---12------5-7--9-4--5--4--7--5--4--------4--------|
S S
|---------------|
|---------------|
|---------------|
|--9---9--7--9--|
P S
|-------------------------------------|
|------------------------------------|
|------------------------------------|
|-7--9-9--12--9-7-9-7--5--7--9--7--9--|
P
|--------------------------------|
|----------------5-----------5--|
|-------------------------------|
|-7--7--7--9--10-----4--5--4-----|
P P P P P
|-----------------------------------------------------------|
|-------------------------------------------------------5--|
|----------------------------------------------------------|
|-7--9-9--7--9-9--12--9-7-9-7---7--5--7--5--7--5--7--5------|
S
|-----------------------------------------------------------
|--5--------4--5---------------5-------5--------------------
|-----------------------------------------------------------
|-----------------4--4--5--4-----4---5---------------7--9---
P
------------------------|
------------------5-----|
------------------------|
------7--9--7--5--------|
S
|--------|
|--------|
|--------|
|--9--7--|
H H P
|------------------------------------------------------|
|-------------3--5------------------5--5--4--5--4--5---|
|------------------------------------------------------|
|-7--9--7--9--------4--5--4---5--4---------------------|
P S
|-------------------------------------|
|------------------------------------|
|------------------------------------|
|-7--9-9--12--9-7-9-7--5--7--9--7--9--|

|--------------------------------------|
|-----------5-------------------------|
|-------------------------------------|
|-7--9--10------4--5----7--5--7--5--7--|
P P P P P
|-------------------------------------------------------|
|------------------------------------------------------|
|------------------------------------------------------|
|-7--9-9--7--9-9--12--9-7-9--7--7--5--7--5--7--5--7--5--|

|-----------------------------------------------------------
|----------5------------------------------------5-----------
|-----------------------------------------------------------
|-------------------------------4-------------------4---5---

-----------------------------------------------
-----------------------------------------------
-----------------------------------------------
----------------------7------------------------
H P P S
----------------------------------------------------------
------------------------------------------3--------------
---------------------------------------------------------
---9--10--9-7--5--9--5--7--5--7--7--5-------5-------------
--T--------J-\------------------------|
---8-------T-\------------------------|
--------------------------------------|
--------------------------------------|
P P
-------------------------------------------------------------
-5--------4---5-----------5-----------5--4------4-----------
------------------------------------------------------------
--108-------------4--5--4-----------4---------9-----4--5--4--
H S S
----------------------------------------------------------|
-5-----------4----------------5------5-------------------|
---------------------------------------------------------|
--108------4-------4--4--5--4-----5---------9---9--7--9---|
H
------------------------------------------------------------------------
---b-----b-----b--r-----------------b--r--------------------
------------------------------------------------------------
-12--14--12--14--12--14--12--9--7--9-----16--17--16--14----9--12--7--9--
H P
--------------------------------------------------------------------------
------------------------------------------------------------
------------------------------------------------------------
-4--7--9--7-----9-14--16--17--16--17--16--17--16--17--16--17--16--17--16--

--------------------------------|
-3333-4444-5-5-5-5--6-6-6-6-----|
--------------------------------|
-----------------------------4--|
S S
------------------------------------------------------------
--5--------4--5---------------5-------5------------------5--
------------------------------------------------------------
-----------------4--4--5--4-----4---5---------7--9----------

-9---9---9---9---9---9--------------9---9---9---9---9---9---------------
------------------------------------------------------------
-12--12--12--12--12--12-------------12--12--12--12--12--12--------------
-9--9--9--9--9--9--4--7-------9--9--9--9--9--9--4--9--------
P H
--------------------------------------------------------------
----------------------------------------------------------
----------------------------------------------------------
-9--7--9-9--12--9-5--7-9-7--9--------7--9-14-7--9-14-7--9-14--

----------------------------------------------------------------|
---------------------------------------b21r----------|
-----------------------------------------------------|
-7--9-14--9--14--9--14--9--14---16--16--16--16-----16---14--14--|
S S P
-----------------------------------------------------------
---------------------------b21---b21------------
------------------------------------------------
--14---14--14--14--14---16--16--16-----16------16--14------
H
-------------------------------------------------------------
---5--5----------------5------------------5-----------------
------------------------------------------------------------
-5-----------9--7---9-----4--5--4--7--4--------10--9--7--9---
P P P P P P P P
-------------------------------------------------------------
--------------------------------------fade out---
-------------------------------------------------
-17--16--14--17--16--14--17--16--14--17--16--14--------------

 

Tab Kommentare (0)
Noch kein Kommentar vorhanden :(
Brauchen Sie Hilfe, haben Sie einen Tipp zu teilen, oder wollen einfach nur über dieses Lied sprechen? Starte die Diskussion!

Sie müssen angemeldet sein, um an der Diskussion teilnehmen zu können
oder Beitreten

 

Über dieses Lied

Keine Informationen über dieses Lied.