Samda Pa Ti Tabulatur von Carlos Santana

Ukulele Tabs ohne Akkorde.

Tab ins SongBook hinzufügen
Tablature / ChordsFont size: A- A A+

Sie wissen nicht wie man einen Tab oder Akkorde liest ?
Schauen Sie sich diesen uke Unterricht an:

Ukulelen-Unterricht

H        H       H     S     H P                       
|-----------------||-------------|---------------|----------------|
|--5------------3-||--------3----|-1-2---2-3-2---|----------------|
|---------2-3-4---||---2-------2-|---------------|----------------|
|----4-5----------||-5-------4---|-------------4-|----------------|
H H H S H P
|------------------|-------------|---------------|----------------|
|---5------------3-|--------3----|-1-2-2--2-3-2--|----------------|
|----------2-3-4---|---2-------2-|---------------|----------------|
|-----4-5----------|-5-------4---|-------------4-|----------------|
H H P P H P H P P
|------------------7-------|-----4-------|---------------------7----|
|--5---5---5-3--3----5-5--|------------|--5---5---5-3-----3-------|
|-------------------------|------------|--------------------------|
|----4---4----------------|-----4--4---|----4---4-----------------|
P H P S S H S H
|--------7-7---7--|---------7---------7--|---------|------6-7--------|
|-3-5--3-----2----|--------------------5-|--5------|----------2------|
|---------------2-|--2-------2-------2---|-(-)-----|----2----------2-|
|-----------------|-(-)--------5-4-5-----|---------|-4----------4----|
H H P P H H
|-----------------7---------|---------|-----------------|--------------|
|-5---5---5-5-3-3---3-5-5--|-(5)5---|--5------------3-|--------------|
|--------------------------|--------|---------2-3-4---|---2--------2-|
|---4---4------------------|--------|----4-5----------|-5--------4---|
S H P H H
|----------------|--------|------------------|--------------|
|-1-2-2--2-3-2---|--------|---5------------3-|--------------|
|-------------2--|-4------|----------2-3-4---|---2-------2--|
|--------------4-|--------|-----4-5----------|-5-------4----|
S H P P H H P P
|---------------|------------------------------------|------------7--------|
|-1-2-2--2-3-2--|--3------------------------------5--|-5---5---53----5-5--|
|---------------|------------------------------------|--------------------|
|-------------4-|----4-9--7--9----9-6--6--8--6--4----|---4---4------------|
H P H P P S H P S S H S
|------------4------|------------7-|-----7-7---7--|------7----------7-|--------|
|-(5)5------------|-5---5---53---|-3-5-----2----|-------------------|-5--5-6-|
|-----------------|--------------|------------2-|--2----2-------2---|--------|
|-----------4--4--|---4---4------|--------------|-(-)-----5-4-5-----|--------|
S H H P P S
|----------------|-------------7-----------|----------------|-----------------|
|---------------5---5---5-53-3---3--5--5--|--(5)-5----5---|---(-)-----------|
|--2-2--3-4-2-2--|------------------------|---------------|-----------------|
|-4---4------4---|4---4-------------------|-------------4-|----4------------|
H H P
|--------------4------|--------------|---------------------|-----------------|
|---3-3-3-5----------|-5-)-----2----|--2-----5---5---53-2-|--2--2-3--5------|
|--------------------|---------4-6--|--4-6----------------|-----------------|
|------------4-4--4--|--4-4-----b---|-(-b--)---4---4------|-----------------|
H H H P
|-------------4------|--4-------------|----------------------------|-----------|
|--3-3-3-5----------|-(-)------2----|--------------5---5---5-3-2-|--2--2-3-5-|
|-------------------|----------4-6--|-----------4----------------|-----------|
|-----------4-4--4--|--4--4-----b--..(-old)....r-----4---4-------|-----------|
H S H H P H
|---5-5-5-7-----|--------------|------5-5-5-7------|--5-7-5-----------5--7--|
|-----------3-5-|-(5)----------|--------------3-5--|------------------------|
|---------------|--------------|-------------------|------------------------|
|---------------|-----4--------|-------------------|------------------------|
H S S H H P
|---5-5-5-7-----|--------------|------5-5-5-7------|--5-7-5-----------5-|
|-----------3-5-|-(5)----(-)-3-|--------------3-5--|--------------------|
|---------------|--------------|-------------------|--------------------|
|---------------|-----4---4----|-------------------|--------------------|
H P
|------------------------------------|-------------------------------|
|------------------------------------|-(--)-------5-3-2--3--5--------|
|------------------------------------|----------------------------2--|
|-5-7-----7-----7-----7-----7-----7--|--7---5-4-4--------------4-----|
S S P P P S
|---5-7-5-7-5-7-5-2----|------2-5-2--------------|---------------------------|
|-3--------------------|-------0----------0------|---------------------------|
|----------------------|-------------------------|---------------------------|
|------------------2b4-|-(2b4)-----2b4r2-0--4-7--|-7---7---7---4-7--4-7---7--|
P S S
|-----------------------|---5-7-5---------|---------------------------------|
|-(--)-------53-2-3-5---|-3---------------|---------------------------------|
|-----------------------|-----------------|---------------------------------|
|--7---5-4-4----------4-|----------9--7--9|-7----7----7----7----7----7------|
P P P
|------------------------------|----------------------|
|----------------5-----5--3----|-3--5-----------------|
|------------------------------|----------------------|
|-7---7--7--7--4---b4-r-----9--|------b4--7----7---4--|
P P P
|----------------------------------|-------------------------------|
|----------------------------------|----------5-----5-----5--3-----|
|----------------------------------|-------------------------------|
|-7--7--9--7--4--7--9--7--9--7--4--|-7--7--7----b4----b4-r------9--|
P P P
|-----------------------|--------------------------------------------|
|-3-----5--------5------|---5---5--3--5-------------5-----5--3-------|
|-----------------------|--------------------------------------------|
|---------b4-------b4-.....r------------b4-4-9-7--4---b4-r-----7--9--|
P P P
|-------------------------------------------|--------------------------------------------|
|-(--b--)r----------------5-----5--3-----|-----------------------------------|
|----------------------------------------|-----------------------------------|
|--12--14---12--9-7--9--7--4---b4-r-----9---|-9--11--11---12--12---14--14---12--12---11--|
S S H P S H P S P S
|----------------------------------------------7-----7-|
|--------------------------|5-----5--3-5--3-2---------|
|--------------------------|--------------------2-4---|
|-11---9--9--7--9---4--5--4-|---4-----------------b----|
P S P P
|----7----------------------|------------------------------------------|
|------5------------------5-|---------------------------------------5--|
|-2-4---2-4-2---------------|------------------------------------------|
|--b-----b-r--5--7--9--9----b4-4---7--9--9--6--8--6--4---6--8--6--4----|
P S H
|---------------------|---------------------------------------|
|-3--5----------b---|-[--]b--r-----------------------|
|-------------------|--------------------------------|
|------b4-----14--16--|--14---16--14--12--14--14--9----9--11--|
P P P S P S H P S P S S
|------------------------------------7-|---7-----------------7---7-------------|
|-----------------------------5-3-5-|-5---2-3-5---5-3-3-2-------5-----------|
|-----------------------------------|----------------------2-4--------------|
|-12--11--9--11--9--7--9--7--5-4-------|-----------4-----------b-------8--9----|
S S S S S S P P P S S S
|-------------------------|-----5-3-3-2-2-----|---------------------|
|------------------5-5-3-3-2-2-0--------------|---3-5-------6---5---|
|-------------------------|-------------------|---------------------|
|-9--7--7--5-5-4-4--------|---------------2---|-0-----4--7----4---4-|
S H P P H H P P H H P P H H P P H H P P H P P H P P
|-------7-5-5-7-5-|-7-5-2-5-7-5-2-5-7-5-2-5-7-5-2-5-7-5-2-5-7-5-2-5-7-5-2-|
|-----------------|-------------------------------------------------------|
|-2-4-2-----------|-------------------------------------------------------|
|--b-r------------|-------------------------------------------------------|
H P P H P P H P P H P P S S
|-5-7-5-2-5-7-5-2-5-7-5-2-5-7-5-2-----|---------------------------------------|
|-------------------------------------|-22--22-21--21---------------------|
|-------------------------------------|-----------------------------------|
|----------------------------------9--|---------------17---17---16---16-------|
P
|------------------------------------|
|--------------------------5-----|
|--------------------------------|
|-14--14--12--11--9-7--9--7--4---b4--|
P P P P P
|----------------------------------------------------------------------|
|----------5-------------5------------5-------------5-----5--3---b---|
|--------------------------------------------------------------------|
|-4-9-7--4---b4-4-9-7--4---b4-4--7--4---b4-4-9-7--4---b4-r-----12--14--|
P P S S
|-------------------------------------|----------------5---|---------------------|
|-(--b--)r----------5-----5--3----|-------------------|-5-----5--3---3---5--|
|---------------------------------|-------------------|---------------------|
|--12--14---12--9-4--7---b4-r-----12--|-11--9-7--4--7---9--|---b4-r-----9----1---|
H H H P
|---5-------------------|---7---7-7---7---|----------|-------------------------|
|-----5----3-5----3-5--|-5---0-----2---0-|----------|-----------------------|
|----------------------|-----------------|----------|-----------------------|
|-4-5----4------4------|-----------------|-9--7-----|-9---9--11--9--11--9-----|
H H P P
|-----------------------|--------------------------|-------------------|
|-----------------------|------------------------|-------------5-----|
|-----------------------|------------------------|-------------------|
|-7---4--7--7--8--7--9--|--7--9---9--11--9--11--9--|-7---4--7--4---b4--|

|-------------------------------------------|
|-5------5------5------5------5-------------|
|-------------------------------------------|
|---b4-4---b4-4---b4-4---b4-4---b4-4--7--9--|
P P S SS SS SSS SS
|-------------------------------------9----------X-------------|
|---5-------------5-----5--3---3------------------------------|
|-------------------------------------7------X----------------|
|-9---b4-4-9-7--4---b4-r-----9---4-9--9---X---------X-X-------|
P P S
|-------5-2---------|-0-2--2-0-----|-------7-----5----|
|-3-2-0-------2---0-|----------3---|-3-3-5---5-3---2--|
|---------------2---|------------4-|------------------|
|-----------0-------|--------------|------------------|
P P S S S S H P P P S
|----------------------------|-----------------|---7-5-7-5-2---------2-2-2---|
|--5-----5--3--5-----5--3---------------5-5-3-3-5-3----------------0----0--X-|
|----------------------------|-----------------|-----------------------------|
|-9--b4-r--------b4-r-----99-|7--7--4-4--------|------------2b4r2-0-0-2------|
P P S S
|---------------------------------------------------|--------------------------|
|--------5-----5--3--5---------------------X-------b-----b-----b22--22b23-|
|--------------------------------------------------|----------------------|
|-9-7--4---b4-r--------b4-4-9-7--4----9-7-----9--12-|14--14--16--16------------|

 

Tab Kommentare (0)
Noch kein Kommentar vorhanden :(
Brauchen Sie Hilfe, haben Sie einen Tipp zu teilen, oder wollen einfach nur über dieses Lied sprechen? Starte die Diskussion!

Sie müssen angemeldet sein, um an der Diskussion teilnehmen zu können
oder Beitreten

 

Über dieses Lied

Keine Informationen über dieses Lied.