Oye Como Va Tabulatur von Carlos Santana

0 Im Lied verwendete Ukulelengriffe:

Tab ins SongBook hinzufügen
Tablature / ChordsFont size: A- A A+

Sie wissen nicht wie man einen Tab oder Akkorde liest ?
Schauen Sie sich diesen uke Unterricht an:

Ukulelen-Unterricht

----0---0---2--3--5---2---------------0---0---2---3---5---2----------
--------------------------3---5---0---------------------------4---0--
---------------------------------------------------------------------
--------------------------------------------------------------------- # x2
# Am Am: Oye Como Va.....(listen to song)


-----------------------------------------------------------
------------0-----0--2------------------0-----0--2--4--5--5
---0--0--0-----0--------1--2---0--0--0-----0---------------
----------------------------------------------------------- # x2

# p= pull off(to next fret/number) s= slide(to next fret/number)

---3--3p-0--3p-0--3p-0--3p-0--3s--7--3--3p-0--3p-0--3p-0--3s--5
---------------------------------------------------------------
---------------------------------------------------------------
---------------------------------------------------------------

# Am Am: Oye Como Va...




# Thats all I've got but I think it's enough so you can say, "oh yeah, I can play some Santana on the uke."

 

Tab Kommentare (0)
Noch kein Kommentar vorhanden :(
Brauchen Sie Hilfe, haben Sie einen Tipp zu teilen, oder wollen einfach nur über dieses Lied sprechen? Starte die Diskussion!

Sie müssen angemeldet sein, um an der Diskussion teilnehmen zu können
oder Beitreten

 

Über dieses Lied

Keine Informationen über dieses Lied.