Maria Maria Tabulatur von Carlos Santana

Ukulele Tabs ohne Akkorde.

druckenTab ins SongBook hinzufügen
Tablature / ChordsFont size: A- A A+

Sie wissen nicht wie man einen Tab oder Akkorde liest ?
Schauen Sie sich diesen uke Unterricht an:

Ukulelen-Unterricht

|----------------|
|---5------------|
|-4--------------|
|------4-5-4-4---|

|-----------------------------------|
|---5--5---------------------5------|
|-4---------------------------------|
|---------5-4-7--5-4-5-4-5-4--------|

|-------------|
|-------------|
|----2-4------|
|-5-----------|

|---------------------------|
|--------3------------------|
|----2-4---5--4-2----2-4----|
|-5---------------5---------|

|-----------------------------------|
|----------5-----5---------------|
|--------------------------------|
|-7--9--10-----4-----10--9--10------|

|-------------------------------------|
|-5-----------3---------------------|
|-----------------------------------|
|----5--7--9-----10--9--10---9--7-----|
P
|-------------------------|
|-------------------------|
|---2---------------------|
|-4---5--4-5--5--4--------|

|-----------------------------------------------------------
|----------5-----------------------------------------------
|----------------------------------------------------------
|-5--7--9------9--4---9--5------7-------9--9--9--9--10------
P
------------------------------------|
--------------------------------|
--------------------------------|
---9--10--9--12--10--9--10--9-7-----|

|------------------------------------------------------------
|----5--------------------------------5---------------------
|-----------------------------------------------------------
|-9-----4--5--4--7--4--5--5---4---4-----------9--10--9-------

---------------------------------------|
--------------3----------------------|
-------------------------------------|
--4--5--7--9-----10--9--10--9--7-------|

|----------------------------------------------------------------------
|-----------------------5---------------------------5----------------
|--------------------------------------------------------------------
|-9------9--10--9---5-------5--9------9--14--9---5-------5--9-7-9------

----------------------------9---9----9---9---9----9---9---9---------|
-----------------5------------------------ -------------5--|
-----------------------------------------------------------|
--9--10--9---5-------5--9---9--9---9--9--9---9--9--9--7-----|
S
|----------------------------------------|
|-------------3--3-----------------------|
|----2-4-5--4-------5---5---4--4---------|
|-5--------------------------------5-----|

|---------------------------------|
|---5---------------------5-------|
|-4-------------------------------|
|------4-4-5-5-5-4-7--5-4---------|
H P
|-----------------------------|
|--------3--------------------|
|-4-5--4---5--4---------------|
|----------------5--7--5------|

|-------------------------|
|-5--4--5-----------------|
|-------------------------|
|----------4--4--5--5-----|

|--------------------------------------------------|
|----------5---5-----------5-----------5---------|
|------------------------------------------------|
|-7--7--7----------10---7------7--9--10-----7------|

|-----------------------------------------------|
|----------------------------------5--5------|
|--------------------------------------------|
|-9--12--12---10--9--7--5--7--9--9--------------|

|---------------------------------|
|-3------------------5------------|
|---------------------------------|
|---4-7--5-4-5-4-5-4----4---------|

|---------------------------------------------------------------------------
|-----------------------5-------------------------------5-----------------
|-------------------------------------------------------------------------
|-9------9--10--9---5-------5--9-5-9------9--10--9---5-------5--9-7-9-------

-----------------------------9---9---9---9------------|
----------------5--------------------------5-----|
-------------------------------------------------|
-9--14--9---5-------5--9--9--9--9--9--9--7--------|
s
|------------..-e--er-nz-
|----------a-|-4--4--4--9-
|--------------------------------------------------------------
|---5------------------------------------------5-----------5---
|-4--------------4-5--4-2----2-4----2----4-4------4------------
|-----4-5-----------------5----------5------5-------5---5------
H P
---------------------------------------------------------------------
---5--------------5-----------------3---3----------------------------
-4--------4-----------4--4--4--2------------5--5--4-5--4----4--------
-----4-5----4-5-4----------------------------------------7----7------
SSSSS
------------------------------------------------------------------------
-----------------5--5---5-----------------------------------------------
----2-4-2--2---2--------------------------------------------------------
-5-------------------------4-4-5-5-7--7---9-----------7--9--7--5--7-----

----------------------------------------------------------|
-5-----5-----5-----------------------5--------------------|
----------------------------------------------------------|
---5-9---5-9---5-9--9--9--9--5---5-------7--5--7--7-------|
H
|-------------------------------|
|-------3-----------------------|
|---------4-2-4-2----2-4-2------|
|-4-5-4-----------5-------------|

|--------------------------------9----9---9---9---9---9------------|
|-5-----------5----------5-----------------------------5-----|
|------------------------------------------------------------|
|----5--9--9-----5--9--9---5--9--9---9--9--9--9--9--7--------|
P
|------------------------------------------------------------|
|---^----^---^---^---^r-------------------------------|
|-----------------------------------------------------|
|-12----12---12---12---12----9--12--12--9-7--9-7--5-----7----|

|----------------------------------9---------------|
|-------------------------------------------5-----|
|-------------------------------------------------|
|-7--9--9--7----9--9--7---9--9--7--9--5--7--------|
H P
|--------------------------------------------------------------------|
|----------5----------------------------------------5--3------5-----|
|-------------------------------------------------------------------|
|-7--9--10-----4--5--4--9--7--5--4---5--4---4--5--4------------------|

|------------------------------------------------------------------
|--------------------5---------------------------5---------------
|----------------------------------------------------------------
|-9------10--9---5-------5--9------9--10--9---5-------5--9-5-9-----

----------------------------------------------------------|
----------------5-------------------------------5-------|
--------------------------------------------------------|
-9--10--9---5-------5--9-7-9------9--14--9---5-------5----|

|---------------------------------------------------------------|
|-5--------------5---------------5---5---5--5--5---5------------|
|---------------------------------------------------------------|
|----5--9--9--5-----9--9---9--5-------------------------5-------|

 

Tab Kommentare (0)
Noch kein Kommentar vorhanden :(
Brauchen Sie Hilfe, haben Sie einen Tipp zu teilen, oder wollen einfach nur über dieses Lied sprechen? Starte die Diskussion!

Sie müssen angemeldet sein, um an der Diskussion teilnehmen zu können
oder Beitreten

 

Über dieses Lied

Keine Informationen über dieses Lied.