Europa Tabulatur von Carlos Santana

5 Im Lied verwendete Ukulelengriffe:

Tab ins SongBook hinzufügen
Tablature / ChordsFont size: A- A A+

Sie wissen nicht wie man einen Tab oder Akkorde liest ?
Schauen Sie sich diesen uke Unterricht an:

Ukulelen-Unterricht

Chords:
Gm Gm,C7 C7,F F,Am Am,Dm Dm
Gm Gm,Am Am,Dm Dm,Am Am,Dm Dm
For All Patterns

Picking Pattern 1

A|----5-7-8-7-5-5-5---3-5-7-5-3------1-3-5-3-1----------------0p1-------------|
E|-3s5-------------6-3----------3-5--1---------1-3-3-3-3-3-1-0----3-1-0--------|
C|-----------------------------------------------------------------------1-2----| X2
G|------------------------------------------------------------------------------|


Picking Pattern 2
A|----5-10H12-12-10--8-7-5-7-4-5-4-5------------------| X2
E|-3s5---------10-8---8-8-5-6-3-5-3-5------------------|
C|-------------10-10--9-9-5-5-4-5-4-5------------------|
G|-------------10-9--10-x-7-X-0-7-0-7------------------|


Picking Pattern 3
A|--------------------------------------------3-0-3-0-3-5-5-3------------|
E|-0-1-3s5----3s5---3-1-3-1-3-1-3-1-3-1-3-1s5----------------5-1--------|
C|2--------2-2---2-2----------------------------------------------2-----|
G|---------------------------------------------------------------------|



A|-----------------0p1-----------------------|
E|-3s5----3s5----3-----3-1-0------------------------|
C|----2-2----2-2-------------1-2----------------|
G|----------------------------------------|

 

Tab Kommentare (0)
Noch kein Kommentar vorhanden :(
Brauchen Sie Hilfe, haben Sie einen Tipp zu teilen, oder wollen einfach nur über dieses Lied sprechen? Starte die Diskussion!

Sie müssen angemeldet sein, um an der Diskussion teilnehmen zu können
oder Beitreten

 

Über dieses Lied

Keine Informationen über dieses Lied.