Le Ciel Dans Une Chambre Tabulatur von Carla Bruni

Ukulele Tabs ohne Akkorde.

Tab ins SongBook hinzufügen
Tablature / ChordsFont size: A- A A+

Sie wissen nicht wie man einen Tab oder Akkorde liest ?
Schauen Sie sich diesen uke Unterricht an:

Ukulelen-Unterricht

# Intro:

Bb Bb

|-------5---------| x2
|---1-------1-----|
|-2-----------2---|
|-----3---3-------|


# Main:
Bb Bb Gm Gm Eb Eb

|-------5--------------1-------------1------
|---1-------1-----3-------3-----3-------3--
|-2-------------2-------------3------------
|-----3---3-----------0---0---------0---0----

Bb Bb F F

-------5------------3------|
---1-------1----1-------1--|
-2------------0------------|
-----3---3--------2---2----|


# Solo:

|-----------------------------------------8-5-
|-6/10----8--6--10-6------5h6-8p6-8/10--------
|---------------------------------------------
|---------------------------------------------

--5--8-8-5-----------5-----10\8----10\8----
------------10-6----------------10------10-
-------------------------------------------
-------------------------------------------

-10\8----10\8----10----5--8----------
------10------10------------8-10--6--
-------------------------------------
-------------------------------------

-5-/--8---10\8----10\8----10\8----10\8-----8-|
-6-/--10-------10------10------10------10----|
---------------------------------------------|
---------------------------------------------|

 

Tab Kommentare (1)
Sie müssen angemeldet sein, um an der Diskussion teilnehmen zu können
oder Beitreten

 

Nilam avatar
flag for ID(ISO2) (Jakarta )
Help me read this chord please
20 Aug 2020
Über dieses Lied

Keine Informationen über dieses Lied.