Madoka Magica Decretum Tabulatur von Blueberryq

1 Im Lied verwendete Ukulelengriffe :

Tab ins SongBook hinzufügen

Ansehen dieser Akkorde für Bariton

Transpose chords:
Tablature / ChordsFont size: A- A A+

Sie wissen nicht wie man einen Tab oder Akkorde liest ?
Schauen Sie sich diesen uke Unterricht an:

Ukulelen-Unterricht


A:0--232----0-0-232----0-0-232----320---
E:--------------------------------------
C:--------------------------------------
G:-------0----------0----------0--------

A:0-232----0-0-232----0--235-2320---
E:----------------------------------
C:----------------------------------
G:------0----------0----------------

----------PART 2------------------------

A:0-2357--7532-320----0-2357--7532-357---
E:------5-------------------5------------
C:---------------------------------------
G:---------------------------------------

A:0-2357--7532-5-787-575-353--20---2320---
E:------5---------------------------------
C:----------------------------------------
G--------------------------------0--------

 

Tab Kommentare (1)
Sie müssen angemeldet sein, um an der Diskussion teilnehmen zu können
oder Beitreten

 

Luigi15 avatar
This isn't Decretum, it's Sis Puella Magica!
15 Oct 2018
Über dieses Lied

Keine Informationen über dieses Lied.