Spring Tabulatur von Antonio Vivaldi

Ukulele Tabs ohne Akkorde.

8.8/10
druckenTab ins SongBook hinzufügen

Tablature / Chords (Ganzer Song)

Font size: A- A A+

Künstler: 
Jahr:  1995
Key: unbekanntTabulaturen (ohne Akkorde)
A|-----------------------------------------------------------------------------|
E|------0--0--0--------0-----1--0--0--0--------0----1--0--1-----1--0-----------|
C|---0--0--0--0--2--0-----------0--0--0--2--0----------0--------2--0--2--------|
G|---------------------0--0--------------------0--0----------0-----------------|

A|-----------------------------------------------------------------------------|
E|------0--0--0--------0-----1--0--0--0--------0----1--0--1-----1--0-----------|
C|---0--0--0--0--2--0-----------0--0--0--2--0----------0--------2--0--2--------|
G|---------------------0--0--------------------0--0----------0-----------------|


A|----------------------0-----------------------0--------0---------------------|
E|-------0--1--0--1-----1--0-----0--1--0--1-----1--0-----1--0--1---------------|
C|---0------------------------0----------------------0-------------2--0--2--0--|
G|-------0-----------0-----0-----0-----------0-----0--------0------------------|


A|----------------------0-----------------------0--------0---------------------|
E|-------0--1--0--1-----1--0-----0--1--0--1-----1--0-----1--0--1------------0--|
C|---0------------------------0----------------------0-------------2--0--2--0--|
G|-------0-----------0-----0-----0-----------0-----0--------0------------------|

Tabulatur von ,

Tab Kommentare (5)

Kommentieren
Teilen Sie Ihre Strumming-Muster, Akkorde oder Tipps zum Spielen dieser Registerkarte mit!
Filtern nach:
nopeydope avatar
flag for IT(ISO2) (Venice)
I think you should add non-sheet music, but overall it fitted perfect
06 Oct 2020
Kommentar
zeynepy avatar
flag for TR(ISO2) (bursa)
thank yaa! hope you share all of the movements
07 Apr 2019
Kommentar
anamaier19 avatar
i love it
28 Feb 2018
Kommentar
Valarauko avatar
This is very well done tablature! It fits for ukulele so well. I love playing this over and over again.
30 Jan 2018
Kommentar
Kirklandmoore avatar
flag for CA(ISO2) (Guelph)
I think it sounds really awesome if you can figure out how to play it with a good speed
16 Mar 2013
Kommentar

Top Tabs & Akkorde von Antonio Vivaldi, verpassen Sie diese Songs nicht!

Über dieses Lied: Spring

Keine Informationen über dieses Lied.

Haben Sie Spring auf Ihrer Ukulele gecovert? Teilen Sie Ihr Werk!
Cover abgeben