A Whole New World Tabulatur von Alan Menken

Ukulele Tabs ohne Akkorde.

Tab ins SongBook hinzufügen
Tablature / ChordsFont size: A- A A+

Sie wissen nicht wie man einen Tab oder Akkorde liest ?
Schauen Sie sich diesen uke Unterricht an:

Ukulelen-Unterricht

a-2---3-2-----2---3-2---2-------2------------------------|
E-----------------------------------2-----2---0-2--------|
d-----------2-----------------------------------------2--|
g---2-----0-----2-----0---2-2-1---2---2-0---0-----2-0----|

a-2-3---5-2-3---5---3-2-2-2-3-5-----5-------5---2-----------2-3---5-|
E-----0-------0-----------------2-0-----2-0-----------0---------0---|
d-------------------------------------------------------------------|
g-----------------2-------------------0-------0---2-0---0-2---------|

a-2-3---5---3-2-2-2-3-5-----5-------5---2-------3-2----------|
E-----0-----------------2-0-----2-3-------------------2------|
d------------------------------------------------------------|
g---------2-------------------0-------0---2-0-2-----0---0----|

a-2-3---5-2-3---5-2-3---5---2-------|
E-----0-------0-------0-------------|
d-------------------------2---------|
g-----------------------------2-0---|

 

Tab Kommentare (1)
Sie müssen angemeldet sein, um an der Diskussion teilnehmen zu können
oder Beitreten

 

Gulnura avatar
flag for KG(ISO2) (Bishkek)
The beginning is great, but the rest of the song doesn’t really fit. Am I doing smth wrong?
23 Mar 2020
Über dieses Lied

Keine Informationen über dieses Lied.