Blue Jean Blues Uke乐谱通过 Zz Top

Ukulele乐谱没有和弦.

添加乐谱到您的歌本里
Tablature / ChordsFont size: A- A A+

不明白什么是乐谱和弦?请您浏览这些uke课程:

intro (1x)                                                  
-------------------0-|-2-----------0-|-2-----------0-|-2-----------0-|
----------------3----|-2--------3----|-2--------3----|-2--------3----|
-----4-5-6-----------|---------------|---------------|---------------|
-----------6---------|-4-------------|-4-------------|-4-------------|

progression (3x)
|-2-----------0-|-2-----------0-|-2-----------0-|-2-------------|
|-2--------3----|-2--------3----|-2--------3----|-2-------------|
|---------------|---------------|---------------|------------6--|
|-4-------------|-4-------------|-4-------------|-4-------------|

---------------|--------------0-|-2-----------0-|-2-------------|
----7----------|-----7------3---|-2--------3----|-2----------3--|
-4--4------6-5-|-4---4----------|---------------|---------------|
----9----------|-----9----------|-4-------------|-4-------------|

ending:
-------4-9-----| ------5--2----0-|
-2-------------| ------------3---|
---------------|----------------|
---------------| -4--------------|

the lead is simply an improvisation around the B B pentatonic scale which you can pretty easily figure out from listening to the record

 

乐谱评价 (0)
暂时没有评价. :(
需要帮助,你有一个小费分享,或只是想谈谈这首歌? 开始讨论!

您必须登录才能加入讨论
要么 注册

 

关于这首歌

没有这首歌的信息.