River Flows In You Uke乐谱通过 Yiruma

1 在歌曲中使用的和弦 :

添加乐谱到您的歌本里

为Baritone浏览这些和弦

Transpose chords:
Tablature / ChordsFont size: A- A A+

不明白什么是乐谱和弦?请您浏览这些uke课程:


A||---5--4--5--4--5-----5-----|------------|---5--4--5--4--5-----5----|
E||------------------5-----3--|------------|------------------5-----3-|
C||---------------------------|--2---4-----|--------------------------|
G||---------------------------|------------|--------------------------|


A||-------------|--5--4--5--4--5-----5--------------------------------|
E||-------------|-----------------5------3----2--3--5-----2-----------|
C||--2---4------|--------------------------------------------4--------|
G||-------------|-----------------------------------------------------|


A||------------------------|------------------------------------------|
E||------------------------|--------5--------3---2---0----------------|
C||--2--1--2---0--2--4--6--|-6--7-------------------------------------|
G||------------------------|------------------------------------------|


(optional)
A||-------------|--5--4--5--4--5-----5--------------------9---7-------|
E||-------------|-----------------5-----3----2---3--5-----------------|
C||--2---4------|-----------------------------------------------------|
G||-------------|-----------------------------------------------------|


A||---9--7--5--4?-5--|------------------------------------|
E||------------------|--------------------5---------------|
C||------------------|--2--4--6----6--7--------7--6--4----|
G||------------------|------------------------------------|


A||--5--7--5--4?-5-----|--5--7--5--4--5------5--7--9--10--12--9--7--5?-4-5--|
E||-----------------5--|-----------------5----------------------------------|
C||--------------------|----------------------------------------------------|
G||--------------------|----------------------------------------------------|


A||--5--7--5--4?-5-----|--5--7--5--4--5------5--7--9--10--12--9--7--5?-4-5-|
E||-----------------5--|-----------------5---------------------------------|
C||--------------------|---------------------------------------------------|
G||--------------------|---------------------------------------------------|


A||--5?5--7--5--4?-5-----|-5--5--7--5--4--5------5--5--7--9--10--12--9--7?-5-?4-5-|
E||-------------------5--|-------------------5------------------------------------|
C||----------------------|--------------------------------------------------------|
G||----------------------|--------------------------------------------------------|


A||--5?5--7--5--4?-5-----|-5--5--7--5--4--5------5--5--7--9--10--12--9--7--5?-4-5-|
E||-------------------5--|-------------------5------------------------------------|
C||----------------------|--------------------------------------------------------|
G||----------------------|--------------------------------------------------------|



(optional)
A||-------------|--5--4--5--4--5-----5--------------------------------|
E||-------------|-----------------5------3----2--3--5-----2-----------|
C||--2---4------|--------------------------------------------4--------|
G||-------------|-----------------------------------------------------|


A||------------------------|------------------------------------------|
E||------------------------|--------5--------3---2---0----------------|
C||--2--1--2---0--2--4--6--|-6--7-------------------------------------|
G||------------------------|------------------------------------------|


A||-------------|--5--4--5--4--5-----5--------------------9---7-------|
E||-------------|-----------------5------3----2--3--5-----------------|
C||--2---4------|-----------------------------------------------------|
G||-------------|-----------------------------------------------------|


A||---9--7--5--4?-5--|------------------------------------|
E||------------------|--------------------5---------------|
C||------------------|--2--4--6----6--7--------7--6--4----|
G||------------------|------------------------------------|



A||--5?5--7--5--4?-5-----|-5--5--7--5--4--5------5--5--7--9--10--12--9--7--5?-4-5-|
E||-------------------5--|-------------------5------------------------------------|
C||----------------------|--------------------------------------------------------|
G||----------------------|--------------------------------------------------------|


A||--5?5--7--5--4?-5-----|-5--5--7--5--4--5------5--5--7--9--10--12--9--7--5?-4-5-|
E||-------------------5--|-------------------5------------------------------------|
C||----------------------|--------------------------------------------------------|
G||----------------------|--------------------------------------------------------|


A||--5?5--7--5--4?-5-----|-5--5--7--5--4--5------5--5--7--9--10--12--9--7--5?-4-5-|
E||-------------------5--|-------------------5------------------------------------|
C||----------------------|--------------------------------------------------------|
G||----------------------|--------------------------------------------------------|

Source www ukulele-tabs com

 

乐谱评价 (0)
暂时没有评价. :(
需要帮助,你有一个小费分享,或只是想谈谈这首歌? 开始讨论!

您必须登录才能加入讨论
要么 注册

 

关于这首歌

没有这首歌的信息.