Crystalline Dance Uke乐谱通过 Victor Carpes

1 在歌曲中使用的和弦: Cmaj7

添加乐谱到您的歌本里
Tablature / ChordsFont size: A- A A+

不明白什么是乐谱和弦?请您浏览这些uke课程:

Cmaj7 Cmaj7       Cmaj7 Cmaj7
A|--2--2--------2--2-------|
E|--0--0----0---0--0--0----|
C|--0--0--0-----0--0----0--|
G|--0--0--------0--0-------|

Cmaj7 Cmaj7 Cmaj7 Cmaj7
A|--2--2--------2--2-------|
E|--0--0----0---0--0--0----|
C|--0--0--0-----0--0----0--|
G|--0--0--------0--0-------|

Cmaj7 Cmaj7 Cmaj7 Cmaj7
A|--2--2--------2--2-------|
E|--3--3----3---3--3--3----|
C|--4--4--4-----4--4----4--|
G|--0--0--------0--0-------|

Cmaj7 Cmaj7
A|-----2--2-----|
E|----3----3----|
C|---4------4---|
G|--5--------5--|

Cmaj7 Cmaj7 Cmaj7 Cmaj7
A|--2--2--------2--2-------|
E|--0--0----0---0--0--0----|
C|--0--0--0-----0--0----0--|
G|--0--0--------0--0-------|

Cmaj7 Cmaj7 Cmaj7 Cmaj7
A|--2--2--------2--2-------|
E|--0--0----0---0--0--0----|
C|--0--0--0-----0--0----0--|
G|--0--0--------0--0-------|

Cmaj7 Cmaj7 Cmaj7 Cmaj7
A|--2--2--------2--2-------|
E|--3--3----3---3--3--3----|
C|--4--4--4-----4--4----4--|
G|--0--0--------0--0-------|

Cmaj7 Cmaj7
A|-----2--2-----|
E|----3----3----|
C|---4------4---|
G|--5--------5--|

 

乐谱评价 (0)
暂时没有评价. :(
需要帮助,你有一个小费分享,或只是想谈谈这首歌? 开始讨论!

您必须登录才能加入讨论
要么 注册

 

关于这首歌

没有这首歌的信息.