Mythology Uke乐谱通过 VersaEmerge

Ukulele乐谱没有和弦.

添加乐谱到您的歌本里
Tablature / ChordsFont size: A- A A+

不明白什么是乐谱和弦?请您浏览这些uke课程:

A|-6---3---6--2-5---|-6---3---5---3--|
E|-6------------5---|-6-------5------|
C|-8---7---10--6-7---|-8---7---7---7--|
G|-----5---8--4-----|-----5-------5--|

A|--------5--5--5--------|----------------------2-2-2-|
E|-3--3-3-4-4-4-------|-3--3-3-4-4-4--4--4-4-2-2-2-|
C|-0--0-0-10-10-10-------|-0--0-0-1-1-1--3--3-3-------|
G|-5--5-5-5-5-5--(x2)-|-5--5-5-6-6-6--5--5-5-4-4-4-|

A|-----------1--------------------------------------------|
E|-3---------1-------4------------------3333333333333-----|
C|-0-----------------3------------------2222222222222-----|
G|-5---------3-------5------------------4444444444444-----|

A|--------5--5--5--------|----------------------2-2-2-|
E|-3--3-3-4-4-4-------|-3--3-3-4-4-4--4--4-4-2-2-2-|
C|-0--0-0-10-10-10-------|-0--0-0-1-1-1--3--3-3-------|
G|-5--5-5-5-5-5--(x2)-|-5--5-5-6-6-6--5--5-5-4-4-4-|

A|-----------1---|
E|-3---------1---|
C|-0-------------|
G|-5---------3---|
A|-3--2--1-0--66666666-55555--|
E|------------66666666-55555--|
C|-7--6--5-5--88888888-77777--|
G|-5--3--3-2------------------|

A|-----------------------------------|
E|-3--------------6-------6----------|
C|-0--------------3-------2----------|
G|-5--------------8-------7----------|
A|-6---3---6--2-5---|-6---3---5---3--|
E|-6------------5---|-6-------5------|
C|-8---7---10--6-7---|-8---7---7---7--|
G|-----5---8--4-----|-----5-------5--|

 

乐谱评价 (0)
暂时没有评价. :(
需要帮助,你有一个小费分享,或只是想谈谈这首歌? 开始讨论!

您必须登录才能加入讨论
要么 注册

 

关于这首歌

没有这首歌的信息.