Figure It Out Uke乐谱通过 VersaEmerge

Ukulele乐谱没有和弦.

添加乐谱到您的歌本里
Tablature / ChordsFont size: A- A A+

不明白什么是乐谱和弦?请您浏览这些uke课程:

A|-----------5------------|
E|--55555555-8--44444444-|
C|--22222222-5--11111111-|
G|--77777777-10--66666666-|

A|-----------5------------|
E|--55555555-8--44444444-|
C|--22222222-5--11111111-|
G|--77777777-10--66666666-|

A|------------------|
E|-3333333333333333-|
C|-0000000000000000-|
G|-5555555555555555-|
A|-22222-44444-55555-55554555-77777777-10-10-10-10-10-10-10-10---|
E|-------44444-55555-------------------------------------|
C|-66666-66666-77777-99999999-1111111111111111-14-14-14-14-14-14-14-14---|
G|-44444-------------77776666-99999999-12-12-12-12-12-12-12-12---|

A|-22222-44444-55555-------------------7--7--7--7--7--7--7--7----|
E|-22222-22222-33333-55555555-77777777-10-10-10-10-10-10-10-10---|
C|-------88888-99999-22221222-44444444-7-7-7-7-7-7-7-7---|
G|-44444-------------77776666-99999999-12-12-12-12-12-12-12-12---|
A|-0-3-2-5--0-3-2-1--|
E|-0-3-2-5--0-3-2-1--|
C|-2-5-4-7--2-5-4-3--|
G|-------------------|
A|-0-2-1-|
E|-0-2-1-|
C|-2-4-3-|
G|-------|

A|------------------
E|-5555555544444444-|
C|-2222222211111111-
G|-7777777766666666-

A|------------------
E|-5555555544444444-|
C|-2222222211111111-
G|-7777777766666666-
A|-33333333x11-11-1--|
E|---------x11-11-1--|
C|-77777777x13-13-3--|
G|-55555555x-------|

A|------------------7-----7-6------|
E|--2-----2-1---5-1-----4-------3--|
C|----2-------2--------------------|
G|------4-------------5-------5----|

A|---------------------------|
E|-5-------5--4-------3---6--|
C|----5--2------2-4-2---3----|
G|---------------------------|

 

乐谱评价 (0)
暂时没有评价. :(
需要帮助,你有一个小费分享,或只是想谈谈这首歌? 开始讨论!

您必须登录才能加入讨论
要么 注册

 

关于这首歌

没有这首歌的信息.