Jump Uke乐谱通过 Van Halen

0 在歌曲中使用的和弦:

添加乐谱到您的歌本里
Tablature / ChordsFont size: A- A A+

不明白什么是乐谱和弦?请您浏览这些uke课程:

Tuning: Standard
Capo: None


Intro:
|-5--7--3-3-5--7--3-3-------------|
|-7--8--5-5-7--8--5-5-0-3---------|
|-7--7--5-5-7--7--5-5-0-2--77-5-0-|
|---------------------0-0---------|

|--7--3-3-5--7--3-3------|
|--8--5-5-7--8--5-5-0-3--|
|--7--5-5-7--7--5-5-0-2--|
|-------------------0-0--|

Verse & Chorus:
|-5--7--3-3-5--7--3-3------|
|-7--8--5-5-7--8--5-5-0-3--|
|-7--7--5-5-7--7--5-5-0-2--|
|-------------------0-0----| (Keep repeating through song)

 

乐谱评价 (0)
暂时没有评价. :(
需要帮助,你有一个小费分享,或只是想谈谈这首歌? 开始讨论!

您必须登录才能加入讨论
要么 注册

 

关于这首歌

没有这首歌的信息.