Love In This Club (介绍) Uke乐谱通过 Usher

Ukulele乐谱没有和弦.

添加乐谱到您的歌本里
Tablature / ChordsFont size: A- A A+

不明白什么是乐谱和弦?请您浏览这些uke课程:

# LOVE  IN THIS CLUB
# (Misscarolinexoxo Usher Explosion)
http://m.youtube.com/watch?v=98EHJtforbg

# *Note: This is not the exact tabs, I just figured everything out by ear.


# Tuning: Standard

x-----------------------------------------------------------------------------
x---------------------------------------6--6--6--6-4-2--2--1/2-1--------------
x-----1--1--1--1-3-5--5--5--5-8----------------------------------3------------
x-----------------------------------------------------------------------------



# Tuning: 2 half steps down

x-----------------------------------------------------------------------------
x---------------------------------------8--8--8--8-6-4--4--3/4-3-1------------
x-----3--3--3--3-5-7--7--7--7-10----------------------------------------------
x-----------------------------------------------------------------------------



# PS: I made some adjustments since I forgot that my uke is tuned 2 half steps down
# (so it applies to my other tabs, I might adjust them as well).
# Don't forget to rate if you find it useful! Enjoy!

 

乐谱评价 (0)
暂时没有评价. :(
需要帮助,你有一个小费分享,或只是想谈谈这首歌? 开始讨论!

您必须登录才能加入讨论
要么 注册

 

关于这首歌

没有这首歌的信息.