Burn (歌曲主要旋律) Uke乐谱通过 Usher

Ukulele乐谱没有和弦.

添加乐谱到您的歌本里
Tablature / ChordsFont size: A- A A+

不明白什么是乐谱和弦?请您浏览这些uke课程:

BURN
(Misscarolinexoxo Usher Explosion)
http://m.youtube.com/watch?v=98EHJtforbg


*Note: This is not the exact tabs, I just figured everything out by ear.



Tuning: Standard

x-------------------------------------------------------------------------
x------------------5----------------2/3-2-0-------------------------------
x------2h4h6-6----2-2-2/4-6--6\4--4--------2------------------------------
x-------------------------------------------------------------------------


x-------------------------------------------------------------------------
x------------------5--7/9--9/10-9-7-2--2/0-------2/3-2-0-0----------------
x------2h4h6-6---------------------------------4--------------------------
x-------------------------------------------------------------------------



Tuning: 2 half steps down

x-------------------------------------------------------------------------
x------------------7----------------4/5-4-2-0-----------------------------
x------4h6h8-8----4-4-4/6-8--8\6--6---------------------------------------
x-------------------------------------------------------------------------


x-------------------------------------------------------------------------
x------------------7--9/11--11/12-11-9-4--4/2----4/5-4-2-0----------------
x------4h6h8-8---------------------------------6--------------------------
x-------------------------------------------------------------------------

*If you could barely hear the notes, you could skip the hammer on and just pluck the string.

PS: I made some adjustments since I forgot that my uke is tuned 2 half steps down
(so it applies to my other tabs, I might adjust them as well).
Don't forget to rate if you find it useful! Enjoy!

 

乐谱评价 (0)
暂时没有评价. :(
需要帮助,你有一个小费分享,或只是想谈谈这首歌? 开始讨论!

您必须登录才能加入讨论
要么 注册

 

关于这首歌

没有这首歌的信息.