Sugar Song And Bitter Steps Uke乐谱通过 UNISON SQUARE GARDEN

26 在歌曲中使用的和弦: B, A#m, C#7, A#m7, C#, F#, D#m, B6, Fdim, Bm6, Am, E, D#, A#7, A#aug, G#, G#m, Bm, C, F#m, A#, Cm, Bm7, A#11, Fm, D

添加乐谱到您的歌本里
Tablature / ChordsFont size: A- A A+

不明白什么是乐谱和弦?请您浏览这些uke课程:

A|-------------------------------------------------------|
E|--------2--------2--2--4/------------2--------2--2--4/-|
C|-1-1-3-----1-1-3--------------1-1-3-----1-1-3----------|
G|-------------------------------------------------------|

B B A#m A#m
A|---------------------------------------1-4-4--4--2-1---|
E|--------2--------2--2--4/---------2--4-----------------|
C|-1-1-3-----1-1-3-----------1-1-3-----------------------|
G|-------------------------------------------------------|

C#7 C#7 A#m7 A#m7 C#7 C#7 C# C# F# F# D#m D#m
A|------1----2-----------------------------2-------------|
E|----------------1----2-2-2-2--2-2-2-2------------------|
C|-------------------------------------------------------|
G|-1-----------------------------------------------------|

B B C# C# F# F# D#m D#m
A|-1--1-1-1-2--4---2--1-----1--1-1-1-2--4---2--1---------|
E|-------------------------------------------------------|
C|-------------------------------------------------------|
G|-----------------------1------------------------1------|

B B A#m7 A#m7
A|-1--1-1-1-2------1--2--3--4----4----4------------------|
E|-------------------------------------------------------|
C|-------------------------------------------------------|
G|-------------1-----------------------------------------|

B6 B6 C#7 C#7 F# F#
Choutenpenchii mitai na kyousou ni mo
D#m D#m Fdim Fdim C#7 C#7 F# F# D#m D#m
narete konna nichijou wo heiwa to mimachigau
B6 B6 Bm6 Bm6 A#m A#m Am Am
rambling coaster yusaburare nagara
Fdim Fdim B6 B6 C#7 C#7
miushinaenai mono wa nanda?

B6 B6 C#7 C#7 F# F#
Byoudousei genri shugi no gainen ni
D#m D#m Fdim Fdim C#7 C#7 E E D# D#
nomarete kokoro made ga maru de ETOSETORA
B6 B6 Bm6 Bm6 A#m A#m Am Am
Daikirai daisuki chanto shaberanakya
Fdim Fdim C#7 C#7 F# F#
ningyouto sashite kawaranai shi

B6 B6 A#7 A#7 D#m D#m
Yoimachi wo yuku hitodakari wa ureshisou
A#aug A#aug F# F# G# G#
dattari sabishisou dattari
E E G#m G#m C# C#
KONTORASUTO ga gosenfu wo tobimawari
Am Am
uta to RIZUMU ni naru

G#m G#m C# C# F# F# D#m D#m
Mamareedo & Shugaa Songu, Piinattsu & Bitaa Suteppu
B B Bm Bm D#m D#m A#aug A#aug F# F# C C
Amakute nigakute me ga mawarisou desu
G#m G#m C# C# F# F# D#m D#m
Nannansei wo mezashite PAATI wo tsuzukeyou
B B Bm Bm F#m F#m
sekaijuu wo odorokasete shimau yoru ni naru
B B F#m F#m
I feel joujou rensa ni natte RIFUREKUTO

B B C# C# F# F# D#m D#m
A|-1--1-1-1-2--4---2--1-----1--1-1-1-2--4---2--1---------|
E|-------------------------------------------------------|
C|-------------------------------------------------------|
G|-----------------------1------------------------1------|

B B A#m7 A#m7
A|-1--1-1-1-2------1--2--3--4--4--4--4--4---4---4--------|
E|-------------------------------------------------------|
C|-------------------------------------------------------|
G|-------------1-----------------------------------------|

B6 B6 C# C# C C
Gaizensei gouri shugi no seiron ni
B B A# A# Fdim Fdim C#7 C#7 E E D# D#
momarete bokura no ongaku wa dougu ni narisagaru?
B6 B6 Bm6 Bm6 A#m A#m Am Am
Kocchi wo muite yo se wo mukenai de yo
Fdim Fdim C#7 C#7 F# F#
sore wa seiron ni naranai kedo

B6 B6 A#7 A#7 D#m D#m
Matsuri hayashi no sono ato de takabutta
A#aug A#aug F# F# G# G#
mama no hito nakidashite shimau hito
E E G#m G#m C# C#
Tabun onaji darou demo kotoba ni shiyou
Cm Cm Fdim Fdim A#m7 A#m7
mono nara chisetsu ga kiwamareri

G#m G#m C# C# F# F# D#m D#m
Saikou datte SHUGAA SONGU shiawase tte BITAA SUTEPPU
B B Bm Bm D#m D#m A#aug A#aug F# F# C C
Shinenai riyuu wo soko ni utsushidase
G#m G#m C# C# F# F# D#m D#m
Oshigattatte tousoku de ashita wa kichau kedo
B B Bm Bm F#m F#m
Nounai tenki yohou no APPUDEETO wo hatashita nara

-------------------------------------------------------
(Instrumental)

F#m F#m C#7 C#7
F#m F#m C# C#
F#m F#m E E B6 B6 F#m F#m
F#m F#m C#7 C#7
F#m F#m C# C#
F#m F#m E E B6 B6 F#m F#m
F#m F#m C#7 C#7
F#m F#m C#7 C#7
F#m F#m C#7 C#7 E E
E E F#m F#m
F#m F#m
E E Bm7 Bm7
A#11 A#m7
Bm Bm

-------------------------------------------------------

D#m D#m A#aug A#aug
someday kyousou ga iki wo hisomete mo
F# F# Fm Fm
someday seiron ni imi ga naku natte mo
B B F# F# E E C# C#
feeling song & step narashi tsuzukeru koto dake ga
D D E E C# C#
Bokutachi wo bokutachi tarashimeru shoumei ni naru, QED!

B6 B6 C# C# C#7 C#7 F# F# A#m A#m D#m D#m D# D#
Mamareedo & Shugaa Songu, Piinattsu & Bitaa Suteppu
G#m G#m B6 B6 C# C# C#7 C#7 F# F# A# A# D#m D#m D# D#
Ikiteku riyuu wo soko ni utsushidase
B6 B6 Bm6 Bm6 A#m A#m Am Am
Hokuhokutou wa kouhou e sono kyori ga hokorashii
B6 B6 C# C# D# D#
Sekaijuu wo, odorokase tsuzukeyou.

G#m G#m C# C# C#7 C#7 F# F# A#m A#m D#m D#m
Mamareedo & Shugaa Songu, Piinattsu & Bitaa Suteppu
B B Bm Bm D#m D#m A#aug A#aug F# F# C C
Amakute nigakute me ga mawarisou desu
G#m G#m C# C# C#7 C#7 F# F# A#m A#m D#m D#m
Nannansei wo mezashite PAATI wo tsuzukeyou
B6 B6 Bm6 Bm6 F#m F#m
sekaijuu wo odorokasete shimau yoru ni naru
B B F#m F#m
I feel joujou rensa ni natte RIFUREKUSHON
B B F#m F#m
goes on ikkyou satte ichinan satte mata ikkyou

B6 B6 C#7 C#7 F# F# D#m D#m
B6 B6 Bm6 Bm6 Fdim Fdim

D#m D#m A#aug A#aug F# F# G# G#
ichinan satte mata ikkyou

B6 B6 C#7 C#7 F# F# D#m D#m
B6 B6 C# C#
F#m F#m B B F#m F#m
F#m F#m

 

乐谱评价 (0)
暂时没有评价. :(
需要帮助,你有一个小费分享,或只是想谈谈这首歌? 开始讨论!

您必须登录才能加入讨论
要么 注册

 

关于这首歌

没有这首歌的信息.