Antisocial Uke乐谱通过 Trust

6 在歌曲中使用的和弦: C, G, D, Bb, A, F

添加乐谱到您的歌本里
Tablature / ChordsFont size: A- A A+

不明白什么是乐谱和弦?请您浏览这些uke课程:

Intro C C  G G (x 3)

A|--3---3---3---3---2---2---2---2--------|
E|--0---0---0---0---3---3---3---3--------|
C|--0-------0-------2--------2------------|
G|--0-------0-------0--------0------------|

(+ drums) x
A|------3---3---3---3---2---2---2---2----|
E|------0---0---0---0---3---3---3---3----|
C|------0-------0-------2--------2--------|
G|------0-------0-------0--------0--------|

Bridge
D D Bb Bb C C A A D D A A
+drums
D D Bb Bb C C A A D D A A

Couplet 1
D D
Tu bosses toute ta vie pour payer ta pierre tombale,
Bb Bb
Tu masques ton visage en lisant ton journal,
C C
Tu marches tel un robot dans les couloirs do metro,
A A D D A A
Les gens ne te touchent pas, il faut faire le premier pas,


D D
Tu voudrais dialoguer sans renvoyer la balle,
Bb Bb
Impossible d'avancer sans ton gilet pare-balle.
C C
Tu voudrais donner des yeux a la justice
A A D D A A
Impossible de violer cette femme pleine de vices.

Riff d'intro du couplet
A|----------------------------------------|
E|------------1---3-------------2-----------|
C|---0--2-------------2---0----2---------------|
G|------------------------------2---------|

Refrain D D C C G G F F
D D C C G G F F
Antisocial, tu perds ton sang froid.
D D C C G G F F
Repense a toutes ces annees de service.
D D C C G G F F
Antisocial, bientot les annees de sevices,
D D C C G G
Enfin le temps perdu qu'on ne rattrape plus.

A|---2---2---0--0----2--2---0--0----2--2---0--0---2--2----0---------------|
E|---3---3---3--3----3--3---3--3----3--3---3--3---3--3----3-----2--------|
C|---2---2---2--2----2--2---2--2----2--2---2--2---2--3----2-----2--------|
G|---0---0---0--0----0--0---0--0----0--0---0--0---0--0----0-----2--------|

couplet 2 :D D Bb Bb C C A A D D A A
Ecraser les gens est devenu ton passe-temps.
En les eclaboussant, tu deviens gênant.
Dans ton désespoir, il reste un peu d'espoir
Celui de voir les gens sans fard et moins bâtards.

Mais cesse de faire le point, serre plutot les poings,
Bouge de ta retraite, ta conduite est trop parfaite
Releve la gueule, je suis la, t'es pas seul
Ceux qui t'enviaient, aujourd'hui te jugeraient.

Couplet 3 : D D Bb Bb C C A A D D A A
Tu bosses toute ta vie pour payer ta pierre tombale,
Tu masques ton visage en lisant ton journal,
Tu marches tel un robot dans les couloirs du metro,
Les gens ne te touchent pas, il faut faire le premier pas,

Tu voudrais dialoguer sans renvoyer la balle,
Impossible d'avancer sans ton gilet pare-balle.
Tu voudrais donner des yeux a la justice
Impossible de violer cette femme pleine de vices.

reprise d'intro
C C G G
A|------3----------3----------2-----------2---------------|
E|------0---0 -----0----0-----3---3-------3---3----------|
C|------0-----2----0------2---2-----2-----2------2-------|
G|------0----------0----------0-----------0---------------|

En choeur
C C G G C C G G
Antisocial, antisocial, antisocial, antisocial
X

Outro
Riff intro du couplet
A|----------------------------------------|
E|------------1---3-------------2-----------|
C|---0--2-------------2---0----2---------------|
G|------------------------------2---------|

D D D D C C D D C C D D C C

Paroliers : Bernard Bonvoisin / Norbert Krief
Paroles de Antisocial © Sony/ATV Music Publishing LLC
Tentative d'adaptation au Uke : Horakhty

 

乐谱评价 (1)
您必须登录才能加入讨论
要么 注册

 

Horakhty avatar
flag for FR(ISO2) (Villeneuve-lès-Maguelone)
Mêmes accords pour la cover d'Anthrax, bien sûr!!!
14 Jul 2019
关于这首歌

没有这首歌的信息.