Marry Me Uke乐谱通过 Train

Ukulele乐谱没有和弦.

添加乐谱到您的歌本里
Tablature / ChordsFont size: A- A A+

不明白什么是乐谱和弦?请您浏览这些uke课程:

A|-------------------------2-----2-----------------0-----0-----3-----3-------|
E|-----0-----0-----0-----0-----------------0-----0-----0-----0-3---0-3---0---|
C|-0-----0-----0-----0---------2-----2-0-----0-------------------------------|
G|---0-----0-----0-----0---5-0---5-0---7-0---7-0---5-0---5-0-----0-----0-----|

A|-3-----3-----3-----3-------------------------------------------------------|
E|-----0-----0-----0-----0---------0-----------------------------------------|
C|-5-----5-----5-----5------------x--5---------------------------------------|
G|---0-----0-----0-----0--------REPEA----------------------------------------|

A|-3-----3-----3-----3-----3-----3-----3-----3-------------------------------|
E|-----0-----0-----0-----0-----0-----0-----0-----0----------0----------------|
C|-4-----4-----4-----4-----5-----5-----5-----5-------------x--5--------------|
G|---0-----0-----0-----0-----0-----0-----0-----0---------REPEA---------------|

 

乐谱评价 (1)
您必须登录才能加入讨论
要么 注册

 

paga14 avatar
flag for US(ISO2) (richmond)
Needs editing
24 Sep 2012
关于这首歌

没有这首歌的信息.