Arirang (traditional Korean) Uke乐谱通过 Traditional

Ukulele乐谱没有和弦.

添加乐谱到您的歌本里
Tablature / ChordsFont size: A- A A+

不明白什么是乐谱和弦?请您浏览这些uke课程:

Arirang (Traditional Korean)                           


arranged by fingeruke52
http://fingeruke.blogspot.com/



Q Q. E E E E E E Q. E E E E E E Q E E E E E E E E Q. E E
A||--------------0-----0--|--3------5--3--5--7----|--5--7--3--0---------0--|
E||-------3---------3-----|--0---------0-----3----|--------0-----3---------|
C||-------0---------0-----|--0---------0-----0----|--------0-----0---------|
G||-------0---------0-----|--0--------------------|--------------0---------|


E E E E Q E E E E E E E E E E E E E E E E E E E E Q E E E E Q Q Q
-----0--3-------5--3--5--|--7--5--3--------0--3----|-----5--3----3---------|
--3-----0----------0-----|--3-----0--5--------0----|-------------0---------|
--0-----0----0-----0-----|--0-----0-----------0----|-------------0----0----|
--0-----0----------0-----|--------------0-----0----|-------------0---------|


Q H Q Q Q Q Q E E E E E E E E Q. E E
-------10--------10----|--10----7----------7----|------7---------------0--|
-----------------------|-------------10---------|--10-----8---------------|
------------------0----|--------0----------0----|------------9--0---------|
--------0--------------|---0--------------------|---------------0---------|


E E E E Q E E E E E E E E E E E E E E E E E E E E Q E E E E Q H
-----0--3-------5--3--5--|--7--5--3--------0--3----|-----5--3----3--------|
--3-----0----------0-----|--3-----0--5--------0----|-------------0--------|
--0-----0----0-----0-----|--0-----0-----------0----|-------------0--------|
--0-----0----------0-----|--------------0-----0----|-------------0--------|


Q H Q
---------------------||
---------------------||
---------------------||
---------------------||

 

乐谱评价 (0)
暂时没有评价. :(
需要帮助,你有一个小费分享,或只是想谈谈这首歌? 开始讨论!

您必须登录才能加入讨论
要么 注册

 

关于这首歌

没有这首歌的信息.