Angry Birds Theme Uke乐谱通过 Tomi Pulkkinen

Ukulele乐谱没有和弦.

添加乐谱到您的歌本里
Tablature / ChordsFont size: A- A A+

不明白什么是乐谱和弦?请您浏览这些uke课程:

A|-----------2------------2----2-3-2-----------------|-------------------------|
E|-0-2----0--0--0-2----0--0-----------------2-0------|-0-2----0-----------0----|
C|---------------------------------------------------|-------------------------|
G|-----0-----0------0-----0----------2-0--0----------|-----0-------0-2-4-------|

A|-2-4-5-4-5-4-5---5-4-2---------|-------------------------2-4-5-4-5-4-5---5-4-2--------|
E|---------------0---------------|-0-2----0-----------0------------------0--------0--0--|
C|-------------------------------|------------------------------------------------------|
G|------------------------3--4---|-----0-------0-2-4------------------------------------|

A|-2-4-5--5--5--5--5---5-4-5----5--2--5--5-4-2--------|
E|-------------------0--------------------------0--0--|
C|----------------------------------------------------|
G|----------------------------------------------------|

A|-2-4-5--5--5--5--5---5-4-5--5-4-5--5--4------7----------|
E|-------------------0---------------------5-5------------|
C|--------------------------------------------------------|
G|------------------------------------------------4--4----|

A|-------------------------2--2--2----2--2--2----|-------------------------5-5-5--4-4-4-------------|
E|-0-----0--2------2------------------6--6--6----|-0-----0--2------2--------------------------------|
C|-----3-----------------------------------------|-----3---------------------------------2--2--2----|
G|-------------0-----0--2--3--3--3---------------|-------------0-----0--2----------------6--6--6----|

A|----------------2-3-2---------------------|-----------2------------2----2-3-2---------------2----|
E|----0--2-----0--------------0--2-----0----|-0-2----0--0--0-2----0--0-----------------2-0----0----|
C|----------3-----------------------3-------|------------------------------------------------------|
G|-0-----------------------0----------------|-----0-----0------0-----0----------2-0--0--------0----|

 

乐谱评价 (0)
暂时没有评价. :(
需要帮助,你有一个小费分享,或只是想谈谈这首歌? 开始讨论!

您必须登录才能加入讨论
要么 注册

 

关于这首歌

没有这首歌的信息.