Spiral Mountain Uke乐谱通过 Themes

1 在歌曲中使用的和弦 :

添加乐谱到您的歌本里

为Baritone浏览这些和弦

Transpose chords:
Tablature / ChordsFont size: A- A A+

不明白什么是乐谱和弦?请您浏览这些uke课程:


Intro:
|--------------0------
|3---3---3-3-----3----
|--------------------2
|---------------------

Body:
|-3---3---5-3-------0-----0--2--3|-2---0-----------0----------
|-------------3-3-------3--------|---------3---3-----3-0-1---0
|--------------------------------|-------------------------2--
|--------------------------------|----------------------------

|----0--2--3--3--5-3-----7--5-7--5--3|-3-4-5--5--7-5--0--2-0-2-0-----0-2
|-3------------------3-3-------------|---------------------------3-3----
|------------------------------------|----------------------------------
|------------------------------------|----------------------------------

|-3--3--5-3------3--3--5-3--------|-3--3--5-3------3--3--5-6-5-3-0--
|-----------3-3--------------4--4-|-----------5-5-------------------
|---------------------------------|---------------------------------
|---------------------------------|---------------------------------

|-3--3--5-3------2-0-2-0-----0-2|-3--3-3--2-3--0--3-3--2-3-----------0----
|-----------3-3----------3-3----|--------------------------3--3--3-3---3--
|-------------------------------|----------------------------------------2
|-------------------------------|-----------------------------------------
Repeat for clarinet
Flute part
/\/\ /\/\ /\/\
|-----0---3---------------------|-----0---3-----2-2-0-0-2-2-----
|-1--3--1--------------0---3----|-1--3--1-------------------3-3-
|------------------0--2--0------|-------------------------------
|-------------------------------|-------------------------------
/\/\ /\/\
|-----0---3---------------------|-----0-------0-------02---2-5-10
|-1--3--1--------------0---3----|-1--3--1-2-3---2-3------3------
|------------------0--2--0------|-------------------------------
|-------------------------------|-------------------------------

 

乐谱评价 (0)
暂时没有评价. :(
需要帮助,你有一个小费分享,或只是想谈谈这首歌? 开始讨论!

您必须登录才能加入讨论
要么 注册

 

关于这首歌

没有这首歌的信息.