Bubble Bobble Uke乐谱通过 Themes

1 在歌曲中使用的和弦 :

添加乐谱到您的歌本里

为Baritone浏览这些和弦

Transpose chords:
Tablature / ChordsFont size: A- A A+

不明白什么是乐谱和弦?请您浏览这些uke课程:


Name of song Main Theme
Name of game Bubble Bobble
Composer of song Tadashi Kimijima
Name of tabber Alexandre Dantas kurebisubarudo
Date tab was made 1 /1 / 9


E chordE E chordE E chordE E chordE E chordE E chordE E chordE E chordE E chordE E chordE S E chordE Q. E chordE S
A||--3--2--0-----2--0--------|--0----------------------|
E||-----------3--------3--1--|-----3--1-0--3------0----|
C||--------------------------|-----------------------2-|
G||--------------------------|-------------------------|


E chordE E chordE E chordE E chordE E chordE E chordE E chordE E chordE E chordE E chordE E chordE E chordE E chordE E chordE E chordE E chordE
--------------------------|-----0--2--0--------0--2--|
--------0--1-----0--1--3--|--3-----------3--3--------|
--0--2--------2-----------|--------------------------|
--------------------------|--------------------------|


E chordE E chordE E chordE E chordE E chordE E chordE E chordE E chordE E chordE E chordE S E chordE Q. E chordE S E chordE E chordE E chordE E chordE E chordE E chordE E chordE E chordE
--3--2--0-----2--0--------|--0----------------------|--------------------------|
-----------3--------3--1--|-----3--1-0--3------0----|--------0--1-----0--1--3--|
--------------------------|-----------------------2-|--0--2--------2-----------|
--------------------------|-------------------------|--------------------------|


E chordE E chordE E chordE E chordE E chordE E chordE E chordE E chordE E chordE E chordE E chordE E chordE E chordE E chordE E chordE E chordE
-----0--2-----3-----0--1--|--2--L--L--L--L-----0--2--|
--3--------3-----3--------|-----------------3--------|
--------------------------|--------------------------|
--------------------------|--------------------------|


E chordE E chordE E chordE E chordE E chordE E chordE E chordE E chordE E chordE E chordE E chordE E chordE E chordE E chordE E chordE E chordE
--3--L--L--L--L-----0--2--|--5--L--L--L--L-----0--2--|
-----------------3--------|-----------------3--------|
--------------------------|--------------------------|
--------------------------|--------------------------|


E chordE E chordE E chordE E chordE E chordE E chordE E chordE E chordE Q. Q E chordE Q H. Q
--7--L--L--L--L--3--5--7--|--8------8----7--5----|--7------------7----|
--------------------------|----------------------|--------------------|
--------------------------|----------------------|--------------------|
--------------------------|----------------------|--------------------|


Q. Q. Q Q. Q E chordE E chordE E chordE E chordE E chordE E chordE E chordE E chordE E chordE E chordE E chordE
--5------0------7----|--5------L-------0--1--|--2--L--L--L--L-----0--2--|
---------------------|--------------3--------|-----------------3--------|
---------------------|-----------------------|--------------------------|
---------------------|-----------------------|--------------------------|


E chordE E chordE E chordE E chordE E chordE E chordE E chordE E chordE E chordE E chordE E chordE E chordE E chordE E chordE E chordE E chordE
--3--L--L--L--L-----0--2--|--5--L--L--L--L-----0--2--|
-----------------3--------|-----------------3--------|
--------------------------|--------------------------|
--------------------------|--------------------------|


E chordE E chordE E chordE E chordE E chordE E chordE E chordE E chordE Q. Q E chordE Q H. Q
--7--L--L--L--L--3--5--7--|--8------8----7--5----|--7------------7----|
--------------------------|----------------------|--------------------|
--------------------------|----------------------|--------------------|
--------------------------|----------------------|--------------------|


Q. Q E chordE E chordE E chordE W
--5-----------7-----7--|--3----------------||
---------3-------3-----|-------------------||
-----------------------|-------------------||
-----------------------|-------------------||

 

乐谱评价 (1)
您必须登录才能加入讨论
要么 注册

 

traveling_Renegade avatar
what is the L for??
04 Jan 2019
关于这首歌

没有这首歌的信息.