Journey Of The Sorcerer Uke乐谱通过 The Eagles

Ukulele乐谱没有和弦.

添加乐谱到您的歌本里
Tablature / ChordsFont size: A- A A+

不明白什么是乐谱和弦?请您浏览这些uke课程:

a -----------------------------------
e --5-3-2-0----5-3-2-0----5-3-7-5-0--
c ----------2----------1-------------
g -----------------------------------

a -----------------------------------
e --5-3-2-0----5-3-2-0----5-3-7-5-0--
c ----------2----------1-------------
g -----------------------------------

a -----------------------------------
e --5-30235----5-30234----5-30357-0--
c ----------2----------1-------------
g -----------------------------------


a -----------------------------------
e --5-30235----5-30234----5-30357-0--
c ----------2----------1-------------
g -----------------------------------


a -----------------------------------
e --3-235--5-3-202000--5-3-202-------
c -----------------------------------
g -----------------------------------

a -----------------------------------
e --5-3-202000--0-3-530--------------
c -----------------------------------
g -----------------------------------

a -----------------------------------
e --5-3-202000--5-3-202--------------
c -----------------------------------
g -----------------------------------

a -----------------------------------
e --5-3-202000--0-3-530--0-3-530-----
c -----------------------------------
g -----------------------------------

 

乐谱评价 (0)
暂时没有评价. :(
需要帮助,你有一个小费分享,或只是想谈谈这首歌? 开始讨论!

您必须登录才能加入讨论
要么 注册

 

关于这首歌

没有这首歌的信息.