Shoot The Poets (歌曲主要旋律) Uke乐谱通过 The Cribs

Ukulele乐谱没有和弦.

添加乐谱到您的歌本里
Tablature / ChordsFont size: A- A A+

不明白什么是乐谱和弦?请您浏览这些uke课程:

A|----4------4-----4---------4------4----4------|
E|--------1-----1-----1---6------1-----1----1---|
C|-1-------1----------------------1-------------|
G|------5------5-----5--5------5------5----5--5-|

A|----4------4-4-6-4---|
E|--------1---4--------|
C|-6-------1-----------|
G|------5--------------|

# Capo on the 1st fret makes it a whole lot easier. (Tabs not relative to capo)

 

乐谱评价 (0)
暂时没有评价. :(
需要帮助,你有一个小费分享,或只是想谈谈这首歌? 开始讨论!

您必须登录才能加入讨论
要么 注册

 

关于这首歌

没有这首歌的信息.