Theme From The Last Waltz (介绍) Uke乐谱通过 The Band

Ukulele乐谱没有和弦.

添加乐谱到您的歌本里
Tablature / ChordsFont size: A- A A+

不明白什么是乐谱和弦?请您浏览这些uke课程:

# This is just the first little phrase. It was all I needed at the time so I didn't do the rest.

A---------------------------------------------------------------------------
E-----0--2--4------4h5--4--2-4--2--0-------0----4-4-4h5-4--2--4-2-1--0-2-4-5
C---------------------------------------------------------------------------
G---------------------------------------------4-----------------------------


A--------------------------------------------------------
E-------------------------5/0--------------4-5-----------
C--------------------------------------------------------
G--6--9---7--6--4--7--6-4-------4-6-7--9-----------------

 

乐谱评价 (0)
暂时没有评价. :(
需要帮助,你有一个小费分享,或只是想谈谈这首歌? 开始讨论!

您必须登录才能加入讨论
要么 注册

 

关于这首歌

没有这首歌的信息.