The Wild Sea! Uke乐谱通过 The Aquabats!

5 在歌曲中使用的和弦 :

添加乐谱到您的歌本里

为Baritone浏览这些和弦

移调和弦:
和弦图:
滚动时将和弦固定在顶部
Tablature / ChordsFont size: A- A A+

不明白什么是乐谱和弦?请您浏览这些uke课程:

CFDmABb
A------------|-----------|----------|----------|4-4-4-5--|-5------|
E-8--8--8--8-|--3--------|5-3-1-0-1-|5-3-1-0-1-|-------0-|1-------|
C-7--7--7--7-|---060504--|----------|----------|---------|--------|
G-9--9--9--9-|-----------|----------|----------|---------|--------|


FDmABbC C
A-----------|----------|4-4-4-5--|-5------|----------|
E-5-3-1-0-1-|5-3-1-0-1-|-------0-|1-------|-8--8--8--|
C-----------|----------|---------|--------|-7--7--7--|
G-----------|----------|---------|--------|-9--9--9--|





FDm
We ride The Wild Sea
F F
And if you want adventure,
Dm Dm
It's the place to be
FDm
The sea wolves and the giant squids
Bb BbC C
Are coming up from The Wild Sea
FDm
And here's where I'll stay
FDm
For ten years and a day
FDm
We're on a quest to find hidden treasure
Bb BbA A
And mystery on The Wild Sea

A--10-------|--10-------|--10-------|--8--------|
E-----8-5-6-|-----8-5-6-|-----8-5-6-|-----5-6-8-|
C-----------|-----------|-----------|-----------|
G-5---------|-5---------|-5---------|-3---------|

Now the Sun she's shining

FDm
Sailing on and on and on and on
ABb
Into the ocean, Into the sun
FDm
My boat, A A Viking, My dad and me
ABb
On The Wild Sea

FDmABb
CCC
F F
Now we're taking on water
Dm Dm
In the Dead Dog's Galley
FDm
A A man overboard everyday
F F
Captured by pirates
Dm Dm
In the isle of donuts
Bb Bb
Rescued by some maidens
C C
Who then ran away
FDm
And here's where we'll be
FDm
We never know what we'll see
F F
We can battle ghosts
Dm Dm
On the bottom of the ocean
A A
Or ride the waves
Bb Bb
Of The Wild Sea

A--10-------|--10-------|--10-------|--8--------|
E-----8-5-6-|-----8-5-6-|-----8-5-6-|-----5-6-8-|
C-----------|-----------|-----------|-----------|
G-5---------|-5---------|-5---------|-3---------|

Now the Sun she's shining

FDm
Sailing on and on and on and on
ABb
Into the ocean, Into the sun
FDm
My boat, A A Viking, My dad and me
ABb
On The Wild Sea

Repeat

 

乐谱评价 (0)
暂时没有评价. :(
需要帮助,你有一个小费分享,或只是想谈谈这首歌? 开始讨论!

您必须登录才能加入讨论
要么 注册

 

关于这首歌

没有这首歌的信息.