Be My Mistake (介绍) Uke乐谱通过 The 1975

Ukulele乐谱没有和弦.

添加乐谱到您的歌本里
Tablature / ChordsFont size: A- A A+

不明白什么是乐谱和弦?请您浏览这些uke课程:

A|------0--------------------0---------------|
E|---00---00----00--------00---00----00------|
C|002--0-----002--0202-002--0-----002--022200|
G|-------0--------------------0--------------|

Be my mistake, then turn out the light. She bought me those jeans. The ones you like. I don't want a hug. I just wanna sleep. The smell of your hair reminds me of her feet.

A|-0000000------------------|
E|---------------0-0--100---|
C|0---------02000-2--0---002|
G|--------0-----------------|

So don't wait outside my hotel room. Just wait 'til I give you a sign. 'Cause I get lonesome sometimes.

A|-------------------------|
E|0----0-0-------0-0---0---|
C|-200-----002000-2--05-200|
G|----0-0------------------|

Save all the jokes you're gonna make, while I see how much drink I can take. Then be my mistake.

 

乐谱评价 (0)
暂时没有评价. :(
需要帮助,你有一个小费分享,或只是想谈谈这首歌? 开始讨论!

您必须登录才能加入讨论
要么 注册

 

关于这首歌

没有这首歌的信息.