Safe and Sound Uke乐谱通过 Taylor Swift

5 在歌曲中使用的和弦: Am, Em, Cmaj7, G, D

添加乐谱到您的歌本里
Tablature / ChordsFont size: A- A A+

不明白什么是乐谱和弦?请您浏览这些uke课程:

VERSE 1
A|--------3/2-------2-----------------------|
E|----0----------3--------------------------|
C|-0-----------4--------2/4---4--2--2-------|
G|--------2---------0-----------------------|

VERSE 2
A|--------3/2-------2-----------------------|
E|----0----------3--------------------------|
C|-0-----------4---------4---------6--------|
G|--------2---------0-------0--0------------|

VERSE 3
A|-2/3---3/2-------2-----------------------|
E|--------------3--------------------------|
C|------------4--------2/4---4--2--2-------|
G|-------2---------0-----------------------|



INTRO: Verse 1 & 2

Verse 1
I remember tears streaming down your face when i said i'll never let you go

Verse 2
When all those shadows almost killed your light

Am Am Em Em Cmaj7 Cmaj7 G G
I remember you said don't leave me here alone

Am Am Em Em Cmaj7 Cmaj7
But all that's dead and gone and passed tonight


Em Em Cmaj7 Cmaj7 G G
Just close your eyes

D D Em Em
The sun is going down

Em Em Cmaj7 Cmaj7 G G
You'll be alright

D D Em Em
No one can hurt you now

Em Em Cmaj7 Cmaj7 G G
Come morning light

D D Cmaj7 Cmaj7 D D Em Em
You and I'll be safe and sound



Verse 3&2

 

乐谱评价 (2)
您必须登录才能加入讨论
要么 注册

 

gabs777 avatar
Whats the intro?
22 Jun 2012
bethhobo avatar
i leik it, man
28 May 2012
关于这首歌

没有这首歌的信息.