Päivänsäde Ja Menninkäinen Uke乐谱通过 Tapio Rautavaara

Ukulele乐谱没有和弦.

添加乐谱到您的歌本里
Tablature / ChordsFont size: A- A A+

不明白什么是乐谱和弦?请您浏览这些uke课程:

Aurinko kun päätti retken
siskoistaan jäi jälkeen hetken
päivänsäde viimeinen

Dm Dm Gm Gm Dm Dm Gm Gm Dm Dm Gm Gm Dm Dm
A|--0-------1-------|--0-------1-------|--0--------0-----0---
E|--1-1-0---3-3-1-0-|--1-1-0---3-3-1-0-|--1-1-0-1--3--0--1---
C|--2-----2-2-------|--2-----2-2-------|--2--------2-----2---
G|--2-------0-------|--2-------0-------|--2--------2-----2---


Hämärä jo maille hiipi
Päivänsäde kultasiipi
aikoi juuri lentää eestä sen

Gm Gm Dm Dm Gm Gm Dm Dm G G C7 C7
A|--1-1-0-1-0-------|-1-1-0-1--0-------|-2-------0-0-----3---
E|--3-------1-1-0---|-3--------1-1-0---|-3-3---3-----3---3---
C|--2-------2-----2-|-2--------2-----2-|-2-------------5-4p0-
G|--0-------2-------|-0--------2-------|-0---0-----------3---


kun menninkäisen pienen näki
vastaan tulevan
se juuri oli noussut luolastaan.

F7 F7 D D Gm Gm C7 C7 F F G G C7 C7
A|--3-3-0---0-----0-|-1-1-------3------|-0-----0-2-------3---
E|--1-----3-1-1-3---|-3---3-1-0-3------|-1-1-----3-------3---
C|--3-------2-------|-2---------4p0----|-0-------2-5-4-5-4p0-
G|--2-------2-------|-0---------3------|-2---2---4-------3---


Kas menninkäinen ennen päivän-
laskua ei voi
milloinkaan elää päällä maan

F F F7 F7 A#7 A#7 ^A#7 A#7 ^A#7 A#7 F7 F7 A# A#
A|--0-----0-3-----3-|-5----5---8-------|-8-8--------/3---1---
E|--1-1-1---1-------|-4--------6-------|-6-----6-6--/1---1---
C|--0-------3-------|-5--------8-------|-8----------/3---2---
G|--2-------2-2-2---|-3-3-3----7-------|-7---7------/2---3---


2.

Katselivat toisiansa
menninkäinen rinnassansa
tunsi kummaa leiskuntaa

Sanoi poltat silmiäni
mut en ole eläissäni
nähnyt mitään yhtä ihanaa

Ei haittaa vaikka loisteesi
mun sokeaksi saa
on pimeässä helppo taivaltaa

Jää luokseni, niin kotiluolaan
näytän sulle tien
ja sinut armaakseni vien


3.

Säde vastas peikko kulta
pimeys vie hengen multa
enkä toivo kuolemaa

Pois mun täytyy heti mennä
ellen kohta valoon lennä
niin en hetkeäkään elää saa

Niin lähti kaunis päivänsäde
mutta vieläkin
kun menninkäinen yksin tallustaa

hän miettii miksi toinen
täällä valon lapsi on
ja toinen yötä rakastaa


# On youtube: https://www.youtube.com/watch?v=NSI6MIHRHTM

 

乐谱评价 (0)
暂时没有评价. :(
需要帮助,你有一个小费分享,或只是想谈谈这首歌? 开始讨论!

您必须登录才能加入讨论
要么 注册

 

关于这首歌

没有这首歌的信息.