Hummani Hei Uke乐谱通过 Tapio Rautavaara

8 在歌曲中使用的和弦: Am, Dm, E7, F, Em, G7, C, F7

添加乐谱到您的歌本里
Tablature / ChordsFont size: A- A A+

不明白什么是乐谱和弦?请您浏览这些uke课程:

This would require low-G G tuning, but nevertheless I made this for standard G G-tuning. It affects ending of 2nd and 4th verse and ending of chorus, sorry!


Am Am Dm Dm E7 E7
A|----------------0--0------------------------------|
E|-0---0---8--------------0-------------0-----------|
C|----------------------------------6--------2---0--|
G|------------4-----------------0-------------------|
juok se si nä hum ma kun tuo tai vas on niin



Am Am F F Em Em Am Am
A|-------------0--------0-----------------|
E|---------0------------------------------|
C|-0---0------------------------0---0---0-|
G|-----------------0--------0-------------|
tum ma ja tai val on pit kän lai nen



Am Am Dm Dm E7 E7
A|-0-------------0---0-----------------------|
E|------8----------------0----------0--------|
C|-------------------------------6-----2---0-|
G|---4-------4--------------0----------------|
ei - hän se tyt tö mi nun kyy - tii ni



Am Am F F Em Em Am Am
A|-------------0---0--------0-----------------|
E|---------0----------------------------------|
C|-0---0----------------------------0---0---0-|
G|----------------------0--------0------------|
tul lut kun o len poi ka hur jan lai nen



Am Am Dm Dm G7 G7 C C E7 E7 Am Am
A|------------0-------------------0--0-------|
E|-0--8----------------------0----------0----|
C|-----------------2------6----------------2-|
G|-------4-------------0---------------------|
Hum ma ni hei! Hum ma ni hei! Hu pu ti ti



F7 F7 E7 E7 Am Am
A|--------------|
E|--------------|
C|-0---0--0---0-|
G|--------------|
hum ma ni hei!



Am Am Dm Dm G7 G7 C C E7 E7 Am Am
A|------------0-------------------0---------|
E|-0--8----------------------0--------0-----|
C|-----------------2------6---------------2-|
G|-------4-------------0--------------------|
Hum ma ni hei! Hum ma ni hei! Sei sah da



F7 F7 E7 E7 Am Am
A|--------------|
E|--------------|
C|-0---0--0---0-|
G|--------------|
hum ma ni hei!

 

乐谱评价 (0)
暂时没有评价. :(
需要帮助,你有一个小费分享,或只是想谈谈这首歌? 开始讨论!

您必须登录才能加入讨论
要么 注册

 

关于这首歌

没有这首歌的信息.