The Hunter Uke乐谱通过 Slaves

Ukulele乐谱没有和弦.

添加乐谱到您的歌本里
Tablature / ChordsFont size: A- A A+

不明白什么是乐谱和弦?请您浏览这些uke课程:

A|------3-----2---------3-----2---------3-----2---------3-----|-xxx-|-x-x-|
E|---1----4-3---4-3--1----4-3---4-3--1----4-3---4-3--1----4-3-|-xxx-|-x-x-|
D|------------------------------------------------------------|-----|-----|
G|------------------------------------------------------------|-----|-----|
A|------3-----2---------3-----2---------3-----2---------3-----2-9-8----------| E|---1----4-3---4-3--1----4-3---4-3--1----4-3---4-3--1----4-3----------------|
C|---------------------------------------------------------------------------|
G|---------------------------------------------------------------------------|
A|---------------------------------------------------------------------------|
E|---1----4-3---4-3--1----4-3---4-3--1----4-3---4-3--1----4-3---2-1----------|
C|---------------------------------------------------------------------------|
G|------5-----4---------5-----4---------5-----4---------5-----4--------------|
A|---8----11-10---11-10--8----11-10---11-10-----3-----2------------------------------|
E|-------------------------------------------1----4-3---4-3-1------------------------|
C|-----------------------------------------------------------------------------------|
G|------5-------4-----------5-------4------------------------------------------------|
A|------3-----2---------3-----2---------3-----2---------3-----2-9-8----------| E|---1----4-3---4-3--1----4-3---4-3--1----4-3---4-3--1----4-3----------------|
C|---------------------------------------------------------------------------|
G|---------------------------------------------------------------------------| D|--------------------------------------------------------------4-3-|
A|------3-----2---------3-----2---------3-----2---------3-----2-----|
G|------------------------------------------------------------------|
B|------------------------------------------------------------------|

A|---------------------------------------------------------------- P- ---3-----2---------3-----2---------3-----2---------3-----2-
C|---0----3-2---3-2--0----3-2---3-2--0----3-2---3-2--0----3-2---2G|-11-------------------------------------------------------------
A|-------------------------------------------------------------------P- -----3---------------3---------------3---------------3----------
C|------------6---------------6---------------6---------------6-----G11------------------------------------------------------------------A|--/3--2-----2-----3--2-----2---2-3--2-----2-----3--2-----2-----|
E|--------4-3---4-3------4-3---4--------4-3---4-3------4-3---4-3-|
D|---------------------------------------------------------------|
G|---------------------------------------------------------------|
A|------3-----2---------3-----2---------3-----2---------3-----2-9-8----------| E|---1----4-3---4-3--1----4-3---4-3--1----4-3---4-3--1----4-3----------------|
C|---------------------------------------------------------------------------|
G|---------------------------------------------------------------------------| A|--------------------------------------------------------------3-3-3-3-3-3-3-3-3-3-3-3-3-3-3-|
E|1-1-1-1-1-1-1-1-1-1-1-1-1-(continue appropriately until....)--1-1-1-1-1-1-1-1-1-1-1-1-1-1-1-|
C|----------------------------------------------------------------------------5-5-5-5-5-5-5-5-|
G|--------------------------------------------------------------------------------------------|

 

乐谱评价 (0)
暂时没有评价. :(
需要帮助,你有一个小费分享,或只是想谈谈这首歌? 开始讨论!

您必须登录才能加入讨论
要么 注册

 

关于这首歌

没有这首歌的信息.