Falling Inside The Black (介绍) Uke乐谱通过 Skillet

Ukulele乐谱没有和弦.

添加乐谱到您的歌本里
Tablature / ChordsFont size: A- A A+

不明白什么是乐谱和弦?请您浏览这些uke课程:

Play each set of three as quarter notes with a quarter rest between sets.

A|----3--2----------------3--2-------5--3-|
E|-0--------0--2--3----0----------0-------|
C|----------------------------------------|
G|----------------------------------------|

A|----3--2----------------3--2------------|
E|-0--------0--2--3----0----------0--3--2-|
C|----------------------------------------|
G|----------------------------------------|

Repeat 2x

 

乐谱评价 (0)
暂时没有评价. :(
需要帮助,你有一个小费分享,或只是想谈谈这首歌? 开始讨论!

您必须登录才能加入讨论
要么 注册

 

关于这首歌

没有这首歌的信息.