Europa Uke乐谱通过 Santana

Ukulele乐谱没有和弦.

添加乐谱到您的歌本里
Tablature / ChordsFont size: A- A A+

不明白什么是乐谱和弦?请您浏览这些uke课程:

A---------------------|-------------------|-----------------------|----------|
E---3---------------6-|---4---------------|----4-6-----------6----|-3--------|
C---------------------|-------------------|---------------------5-|----------|
G-----5-7--8--7---5---|-------------------|--------5-7--5---------|----------|

A--------------------|--------------------|--------------------------|--------|
E----3-4-6---3---4-3-|--------------------|-----3-4-6--4--------3----|--------|
C--------------------|-5------------------|--5--------------------5--|--3-----|
G----------5---------|--------------------|--------------------------|--------|

A---------------------|-------------------|-----------------------|----------|
E---3---------------6-|---4---------------|----4-6-----------6----|-3--------|
C---------------------|-------------------|---------------------5-|----------|
G-----5-7--8--7---5---|-------------------|--------5-7--5---------|----------|

A--------------------|--------------------|--------------------------|--------|
E----3-4-6---3---4-3-|--------------------|-----3-4-6--4--------3----|--3-----|
C--------------------|-5------------------|--5--------------------5--|--------|
G----------5---------|--------------------|--------------------------|--------|

A---------------------|----------------------|----------------------------|---------|
E----3---------------|--------------------|-----------------3--6------|-------|
C--------------------|--------------------|---------------------------|-------|
G--------5---12-------|--12------------10--8-|-10---------------------7---|-10---12-|

A---------------------|---------------------|-------------------------|---------|
E--------------------|--------------------|-----------6--3-3-------|-3-------|
C--------------------|--------------------|-----------------5--3---|---3-----|
G---------------10--8-|----10----8---7------|-10-----8--5-----------5-|-----5---|
S S S
A------------------|-------------------|------------------------|-------------|
E------------------|------3--6-----3--6|---3--------6-----------|-3-6---3-6---|
C---------2---3----|---5--------5------|5-------------5---3-5--3|------5-----5|
G-----5------------|-------------------|------------------------|-------------|

A-----------------------|------------------------|--------------------------|
E-3-6--------6----3-----|-----3------------3-----|---3---6--3------------3--|
C------5------------5--3|---5-----------5--------|-5----------6--5--3--5--3-|
G---------5-------------|-------------5--------5-|-----5-------------5------|

A------------------------|---5-----------------------|
E------------------------|--------------------------|
C------------------------|---3--------2-----3-------|
G--5---------------------|---5----5-----------------|
S S S
A------------------|-------------------|------------------------|-------------|------------------|-------3--6-----3--6----3--------6----------|--3-6---3-6--|
C---------2---3----|---5--------5-----||5-------------5---3-5--3|------5-----5|G-----5------------|-------------------|------------------------|-------------|
A-----------------------|------------------------|--------------------------|
E-3-6--------6----3-----|-----3------------3-----|---3---6--3------------3--|
C------5------------5--3|---5-----------5--------|-5----------6--5--3--5--3-|
G---------5-------------|-------------5--------5-|-----5-------------5------|

A----------------------------------|---------------------------|
E--3-----3--5----------3--5---3--5-|-------3------------------|
C----------------------------------|--------------------------|
G-------------5--7--9--------------|---5-------5----12---------|

A------------------------------------|-------------------------|-----------------|
E----------------------------------|--------------3---6-----|---------------|
C----------------------------------|------------------------|---------------|
G--12----------------------10---8----|----10----------------7--|-10---------12---|

A----------------------------------|---------------------------|
E---------------------------------|--------------------------|
C---------------------------------|--------------------------|
G-----------------------10----8----|--10----------8--7---------|

A----------------------------------|
E-------------------6--3-3--------|
C--------------------------5--3---|
G----10---------8--5-------------5-|

 

乐谱评价 (0)
暂时没有评价. :(
需要帮助,你有一个小费分享,或只是想谈谈这首歌? 开始讨论!

您必须登录才能加入讨论
要么 注册

 

关于这首歌

没有这首歌的信息.