La Bamba Uke乐谱通过 Ritchie Valens

3 在歌曲中使用的和弦: C, F, G

添加乐谱到您的歌本里
Tablature / ChordsFont size: A- A A+

不明白什么是乐谱和弦?请您浏览这些uke课程:

# low G G tuning, tenor ukulele


INTRO

A-------------------------0--------------------------------------0-------|
E----------------0--3--1-----3-----------1--1--0--------0--3--1-----3----|
C-------------0-----------------------2-----------2--0-------------------|
G----0--2--4--------------------0--4-------------------------------------|



A----------------0--------------------------------------0-----------|
E-------0--3--1-----3-----------1--1--0--------0--3--1-----3--------|
C----0-----------------------2-----------2--0-----------------------|
G----------------------0--4-----------------------------------------|

CHORDS

C C

F F

G G

#Repeat as desired

 

乐谱评价 (0)
暂时没有评价. :(
需要帮助,你有一个小费分享,或只是想谈谈这首歌? 开始讨论!

您必须登录才能加入讨论
要么 注册

 

关于这首歌

没有这首歌的信息.