Fly Uke乐谱通过 Richard Marx

1 在歌曲中使用的和弦 :

添加乐谱到您的歌本里

为Baritone浏览这些和弦

Transpose chords:
Tablature / ChordsFont size: A- A A+

不明白什么是乐谱和弦?请您浏览这些uke课程:


E ---------------- ---------------- ----------- ----- ----------------
B ---------------- ---------------- ----------- ----- ----------------
G ---------------- ---------------- ----------- ----- ----------------
D - - - 3 - - - - ----- - - --- ----- ------ ---------
A - - - 3 - - - - - --- - - --- -- - 1----- ---------
D - - - 3 - - - - -3-- - - -3 - 7- 3----- ---------



E ---------------- ----------------
B ---------------- ----------------
G 7-----9-----9--- 1 -----9-----9-9-
D?0-0-0-0-0-0-0-0-? 0-0-0-0-0-0-0-0-?
A ---------------- ----------------
D ---------------- ----------------



E ---------------- ---------------- ---------------- ---------- ------
B ---------------- ---------------- ---------------- ---------- ------
G ---------------- ---------------- ---------------- ---------- ------
D -3--3--3--3--333 -3 ----3 -- -3--3--3--3--333 -3 ----1 -----
A -3--3--3--3--333 -3 ----3 -- -3--3--3--3--333 -3 ---- -----
D -3--3--3--3--333 -3 ----3 -- -3--3--3--3--333 -3 ---- -----

 

乐谱评价 (0)
暂时没有评价. :(
需要帮助,你有一个小费分享,或只是想谈谈这首歌? 开始讨论!

您必须登录才能加入讨论
要么 注册

 

关于这首歌

没有这首歌的信息.