Yer Killin Me Uke乐谱通过 Remo Drive

7 在歌曲中使用的和弦: Bb, Eb, Cm, F, Gm7, D, Ebm

添加乐谱到您的歌本里
Tablature / ChordsFont size: A- A A+

不明白什么是乐谱和弦?请您浏览这些uke课程:

[Verse 1]
Bb Bb Eb Eb
I don't wanna fucking be here anymore
Cm Cm F F
I'm leaving forever, if you'll miss me whatever
Bb Bb Eb Eb
I don't care, I'm tired of your face
Cm Cm F F
And the way that you hate everything

[Chorus 1]
Cm Cm Gm7 Gm7
You make me want to start smoking
D D Eb Eb Ebm Ebm
Cigarettes so I die slowly
Cm Cm Gm7 Gm7
Anything that's bad for me
D D
You're killing me
Eb Eb Ebm Ebm
You're killing me

[Interlude]
Bb Bb F F Eb Eb x4

[Verse 2]
Bb Bb Eb Eb
I don't wanna fuckin hear it anymore
Cm Cm F F Bb Bb
I know you got problems and we've all got problems too
Eb Eb Cm Cm F F
I'm sick of being your shoulders, you know I need shoulders too

[Chorus 2]
Cm Cm Gm7 Gm7
You make me want to start rolling
D D Eb Eb Ebm Ebm
Fat ass blunts 'til I start choking
Cm Cm Gm7 Gm7
Anything that's bad for me
D D
You're killing me
Eb Eb Ebm Ebm
You're killing me

A|-----------------------------------------
E|--------7--5--3--2-----------2-----------
C|--2--2--------------4--2--4-----2--4--4--
G|-----------------------------------------

A|-----------------------------------------
E|--------7--5--3--2-----------2-----------
C|--2--2--------------4--2--4-----2--4--4--
G|-----------------------------------------

A|-----------------------------------------
E|--------7--5--3--2-----------2-----------
C|--2--2--------------4--2--4-----2--4--4--
G|-----------------------------------------

A|--------------------------------------------------------
E|--------7--5--3--2-----------2--------------2--3--2-----
C|--2--2--------------4--2--4-----2--4--4--------------4--
G|--------------------------------------------------------

A|-----------------------------------------
E|--------7--5--3--2-----------2-----------
C|--2--2--------------4--2--4-----2--4--4--
G|-----------------------------------------
[Outro]
Bb Cm x14
Bb Bb

[Waltz outro]
Bb Bb Cm Cm x6

 

乐谱评价 (1)
您必须登录才能加入讨论
要么 注册

 

derpyuke avatar
flag for US(ISO2) (Decatur )
yeeeeee
04 Mar 2019
关于这首歌

没有这首歌的信息.