Scar Tissue Uke乐谱通过 Red Hot Chili Peppers

3 在歌曲中使用的和弦: F, Dm, C

添加乐谱到您的歌本里
Tablature / ChordsFont size: A- A A+

不明白什么是乐谱和弦?请您浏览这些uke课程:

Thanks to Ukulele Underground
https://www.youtube.com/watch?v=-GxlGDXgT-I

A|----0-0-0-0---------------------------
E|-1---1-1-1---0-0-1-1---1-1---0--------
C|-0-----------0-0-2-2--2-2-2-----------
G|--------------------------------------

A|----0-0-0-0---------------------------|
E|-1---1-1-1---3--0-1----3p1-3p1--------|
C|-0--------------0-2-------------------|
G|--------------------------------------|

F F
Scar tissue that I wish you saw
Dm Dm
Sarcastic mister know it all
F F
Close your eyes and I'll kiss you 'cause
Dm Dm
With the birds I'll share

F F C C
With the birds I'll share
Dm Dm
This lonely view
F F C C
With the birds I'll share
Dm Dm
This lonely view

F F
Push me up against the wall
Dm Dm
Young Kentucky girl in a push-up bra
F F
Fallin' all over myself
Dm Dm
To lick your heart and taste your health 'cause

F F C C
With the birds I'll share
Dm Dm
This lonely view
F F C C
With the birds I'll share
Dm Dm
This lonely view

A|-----------------------------------|
E|-8/5-5---5/3-3---3/5-5---5/7/8-----|
C|-----------------------------------|
G|-----------------------------------|

F F
Blood loss in a bathroom stall
Dm Dm
Southern girl with a scarlet drawl
F F
Wave goodbye to ma and pa 'cause
Dm Dm
With the birds I'll share

F F C C
With the birds I'll share
Dm Dm
This lonely view
F F C C
With the birds I'll share
Dm Dm
This lonely view

F F
Soft spoken with a broken jaw
Dm Dm
Step outside but not to brawl
F F
Autumn's sweet we call it fall
Dm Dm
I'll make it to the moon if I have to crawl and

F F C C
With the birds I'll share
Dm Dm
This lonely view
F F C C
With the birds I'll share
Dm Dm
This lonely view


A|-3/5-5--------------------3/5-7-----
E|-------8/5-5--5/3-3--8/5-5-----------
C|-----------------------------------
G|-----------------------------------

A|---------------------5/7/8----|
E|-8/5-5--8/3-3--8/5-5----------|
C|------------------------------|
G|------------------------------|


F F
Scar tissue that I wish you saw
Dm Dm
Sarcastic mister know it all
F F
Close your eyes and I'll kiss you 'cause
Dm Dm
With the birds I'll share

F F C C
With the birds I'll share
Dm Dm
This lonely view
F F C C
With the birds I'll share
Dm Dm
This lonely view

A|-10/12--12/10-10--10/12-7-7/8-5-3/5/3/5-|
E|----------------------------------------|
C|----------------------------------------|
G|----------------------------------------|

A|-5-----------------------------|
E|---8/5--5/8-3-3/8-5------------|
C|-------------------2/4/2-------|
G|-------------------------------|

A|-------------------------------|
E|-3/5-555-----------------------|
C|--------2/4/2--2/4-000h2-------|
G|-------------------------2-----|

A|-----873-3/5-----------------------|
E|-3/5---------3/5-5/8/3-----3/5-----|
C|-----------------------------------|
G|-----------------------------------|

 

乐谱评价 (3)
您必须登录才能加入讨论
要么 注册

 

smegs avatar
D D DUDUD D D
13 Jan 2020
503dude avatar
Absolutely perfect TAB. Thank you Ukulele Underground.
26 Nov 2019
alexis7989 avatar
Very accurate. Correct key and spectacular job on tab
11 Aug 2016
关于这首歌

没有这首歌的信息.