Scar Tissue (独奏) Uke乐谱通过 Red Hot Chili Peppers

Ukulele乐谱没有和弦.

添加乐谱到您的歌本里
Tablature / ChordsFont size: A- A A+

不明白什么是乐谱和弦?请您浏览这些uke课程:

Solo 1
G--------------------------------------
C--------------------------------------
E -----8-8s5-5-5s3-3-3s5-5s7-7s8-8-----
A--------------------------------------

Solo 2
G--------------------------------------------------------
C--------------------------------------------------------
E------------8s5-5s3-3-8s5-5-------8s5-8s3-8s5-----------
A-----3s5-5------------------3s5-7-------------5s7-7s8-8-

Solo 3
G------------------------------------------------------------------------------
C--------------------------------------------------------------------2s4s2-----
E--------------------------------------------------8s5-5-5s8-3-3s8-5------3s5-5--
A------10s12-12s10-10s12s7-7-7s8s5-3s5-5-5s3-3s5-------------------------------

G----------------------2--------------------------
C------2s4s2-2s4-0-0h2-----------------------------
E-------------------------3s5-----------5-5s8s3-3s5
A-----------------------------8-7-3-3s5------------

 

乐谱评价 (1)
您必须登录才能加入讨论
要么 注册

 

Elpibepiola avatar
Good job!!! Thank you brother
02 Apr 2018
关于这首歌

没有这首歌的信息.